Sigamos Caminando, Don Tetto (acordes) (ver 2)

Autor: JoseTetto | 21363 visualizaciones

asosmbcsosdsosdsosmfsosgsosgsosm


E--------------------------------------------
B---------9-6/7--6h7h6-----------------------
G---------8-5/6--------8---6-4--6------------
D----4/6-----------------8--------8-9-8-6-4--
A--2-----------------------------------------
E--------------------------------------------

----------------------7---6h7h6-----
--------9-6/7----4-7--7---------h7--
--------8-5/6--6--------------------
---4/6------------------------------
-2----------------------------------
------------------------------------

primera estrofa:

   F#
SIEMPRE ESTAREMOS BIEN
   B
Y APRENDEREMOS A CAER
   F#
DIFÍCIL PUEDE SER
   B
CUANDO TE NIEGAS A CREER
  F#
PODREMOS SUPERAR
  B
LO QUE VIVIMOS Y VENDRÁ
  F#
NADIE PUEDE CAMBIAR
  B
LO QUE SENTIMOS ES VERDAD

[PRE CORO]
  G#m         B
Y YO PUEDO JURAR
            F#
QUE VOY A ESTAR
  F#               F#
CUANDO EL TIEMPO LLEGUE AL FINAL
    G#m            B
Y AQUÍ VAS A ENCONTRAR
     F#              C#
TODO LO QUE ESTAS BUSCANDO, MIRAME.....

[CORO]
 F#     C#    G#m             B
OHHH, WOOOO, WOOO, TAN SOLO PUEDO DARTE AMOR
  F#     C#   G#m        B
OHHH, WOOOO, WOOO, OLVIDAREMOS EL DOLOR
F#     C#    G#m                 G#m
OHHH, WOOOO, WOOO, SIGAMOS CAMINANDO
   G#m
Y DEMOSTRANDO AL MUNDO
        B           C#           F#
QUE TAN SOLO ESTABA HECHO PARA DOS
punteo:
e--------------------------7--
B---------9-6/7--6h7h6-----7--
G---------8-5/6--------8------
D----4/6-----------------8----
A--2--------------------------
E-----------------------------

F#
NUNCA LEJOS ME IRÉ
B
SIEMPRE A TU LADO ESTARÉ
F#
AUNQUE TODO ANDE MAL
B
MI MANO PUEDE SUJETAR
F#
CRÉEME QUE TAMBIÉN
B
NINGÚN MIEDO A NO SABER
F#
LO QUE PUEDE PASAR
B
LO QUE LA VIDA NOS DARÁ


PRE CORO
  G#m         B
Y YO PUEDO JURAR
            F#
QUE VOY A ESTAR
  F#               F#
CUANDO EL TIEMPO LLEGUE AL FINAL
    G#m            B
Y AQUÍ VAS A ENCONTRAR
     F#              C#
TODO LO QUE ESTAS BUSCANDO, MIRAME


::CORO::
 F#     C#    G#m           B
OHHH, WOOOO, WOOO, TAN SOLO PUEDO DARTE AMOR
  F#     C#    G#m               B
OHHH, WOOOO, WOOO, OLVIDAREMOS EL DOLOR
F#     C#    G#m                 G#m
OHHH, WOOOO, WOOO, SIGAMOS CAMINANDO
   G#m
Y DEMOSTRANDO AL MUNDO
        B           C#
QUE TAN SOLO ESTABA HECHO PARA
   D#m          B
BESARTE, Y ENTREGAR MI VIDA EN UN INSTANTE
   F#    C#
AMARTE SIEMPRE
[SUBE UN TONO]
G#     D#    A#m                 C#
OHHH, WOOOO, WOOO, TAN SOLO PUEDO DARTE AMOR
  G#     D#    A#m                 C#
OHHH, WOOOO, WOOO, OLVIDAREMOS EL DOLOR
G#     D#    A#m                C#
OHHH, WOOOO, WOOO, SIEMPRE ESTARÉ A TU LADO
G#     D#    A#m               C#
OHHH, WOOOO, WOOO, ASI PASEN LOS AÑOS,
  A#m
SUJETANDO MI MANO
  C#
SIGAMOS CAMINANDO
   A#m
Y DEMOSTRANDO AL MUNDO
        C#                     G#
QUE TAN SOLO ESTABA HECHO PARA DOS

punteo final; =]
e---------------------------------------------------
B--------11-8/9--8h9h8------------------------------
G--------10-7/8---------10----8-6--8----------------
D----6/8-------------------10--------10-11-10-8-6---
A--4------------------------------------------------
E---------------------------------------------------

---------------------9-8h9h8---9/11v-
--------11-8/9----6--9-------9-------
--------10-7/8--8--------------------
----6/8------------------------------
--4----------------------------------
-------------------------------------





Calificar esta versión:
Aviso: Este fichero es trabajo propio de su transcriptor y representa su interpretación personal de la canción. El material contenido en esta página es para exclusivo uso privado, por lo que se prohibe su reproducción o retransmisión, así como su uso para fines comerciales.
Más versiones de Sigamos Caminando, Don Tetto
Sigamos Caminando
acordes
Sigamos Caminando (ver 2)
acordes
Sigamos Caminando (ver 3)
acordes
Sigamos Caminando (ver 4)
acordes
Sigamos Caminando
tablatura
Descubre más canciones de Don Tetto