Ha Vuelto A Suceder, Don Tetto (tablatura) (ver 2)

Autor: Anónimo | 42085 visualizaciones



Bueno Yo saque este cover .. con la ayuda del mismo Carlos Leon Gomez
pss lo grabe de un acustico que dio .. y estube presente..
espero les guste..es super chido y suena rechulo =)
INTRO
1ª Parte
e|---------------------------------------------
B|---------------------------------------------
G|--7/9-9/---6/7-6-----7/9-9/--6/7-6-------6---
D|-----------------9-7---------------9-7p9--7--
A|---------------------------------------------
E|---------------------------------------------

-----------------------|
-----------------------|
--------6/7-6----------|
--7-7-9-------9-7--6^--|
-----------------------|
-----------------------|

2ª Parte
e|---------------------------------------------
B|---------------------------------------------
G|--7/9-9/---6/7-6-----7/9-9/--6/7-6-------6---
D|-----------------9-7---------------9-7p9--7--
A|---------------------------------------------
E|---------------------------------------------

------------------------|
------------------------|
--------6/7-6------7/9/-|
--7-7-9-------9-7-------|
------------------------|
------------------------|


Estrofa:

   A* - Em
   D-E-F#-G
    C#,D,E
   A* - Em
   D-E-F#-G
    C#,D,E

   F#-G-A
    E,D,C#,Bm,C#,D,E
   F#-G-A
   A*

CORO:

   E-F#,E
   E-F#,E
   G-B,A-A-G#-F#

   E-F#,E
   E-F#,E
   G-B,A-A-G#-F# - E

luego, despues del primer coro se repite la 2ª parte del intro

---------------------------------------------------------------
A* = xx22xx
Em = x22xxx
D  = x5x7xx
E  = x7x9xx
F# = x9x11xx
G  = x10x12xx
C# = x4x6xx
A  = x12x14xx
Bm = x2x4xx
B  = x14x16xx
G# = x11x13xx
---------------------------------------------------------------
HA VUELTO A SUCEDER Y
JURE NO VOLVERLO A HACER
TRES BOTELLAS A MI LADO
INDICAN QUE FALLE OTRA VEZ

Y ESE DOLOR EN MI CABEZA
ME HACE PENSAR MAS EN ELLA
NO ERA LA MEJOR MANERA
DE CALMAR MI OBSECION

NECESITO OLVIDARTE
ESTOY A PUNTO DE ODIARTE
PERO NUEVAMENTE ES VIERNES
ME TRAICIONA LA RAZON
PORQUE NADA ES SUFICIENTE
SI ESTAR MAL ES LO DE SIEMPRE
SEGUIRE MEZCLANDO GANAS CON ALCOHOL

YA VEZ HA VUELTO A SUCEDER
NO LO PUEDO ENTENDER
QUE TU RECUERDO ME ATRAVIESA
Y ME HACE ENLOQUECER
HOY TE BUSQUE OTRA VEZ
MI MUNDO ESTA AL REVEZ
ESTOY BORRACHO Y NO TENGO MIEDO A CAER

SOLO FUY VICTIMA DE LA OCACION
SOY UN CONJUNTO DE ERRORES
QUE NO TIENE SOLUCION
POR DEBAJO DEL PROMEDIO
DEBO SER UN PERDEDOR
CUANDO MIRO AL ESPEJO
APARECE ESE HUEVON

NECESITO OLVIDARTE
ESTOY A PUNTO DE ODIARTE
PERO NUEVAMENTE ES VIERNES
ME TRAICIONA LA RAZON
PORQUE NADA ES SUFICIENTE
SI ESTAR MAL ES LO DE SIEMPRE
SEGUIRE MEZCLANDO GANAS CON ALCOHOL

YA VEZ A VUELTO A SUCEDER
NO LO PUEDO ENTENDER
QUE TU RECUERDO ME ATRAVIESA
Y ME HACE ENLOQUECER
HOY TE BUSQUE OTRA VEZ
MI MUNDO ESTA AL REVEZ
ESTOY BORRACHO Y NO TENGO MIEDO A CAER

HA VUELTO A SUCEDER
NO LO PUEDO ENTENDER

Y AUNQUE LO INTENTE NUEVAMENTE
SIEMPRE VUELVE A SUCEDER

YA VEZ HA VUELTO A SUCEDER
NO LO PUEDO ENTENDER

QUE ESTOY BORRACHO
Y NO TENGO MIEDO A CAER





Calificar esta versión:
Aviso: Este fichero es trabajo propio de su transcriptor y representa su interpretación personal de la canción. El material contenido en esta página es para exclusivo uso privado, por lo que se prohibe su reproducción o retransmisión, así como su uso para fines comerciales.
Más versiones de Ha Vuelto A Suceder, Don Tetto
Ha Vuelto A Suceder
acordes
Ha Vuelto A Suceder
tablatura
Ha Vuelto A Suceder (ver 2)
tablatura
Ha Vuelto A Suceder (ver 3)
tablatura
Ha Vuelto A Suceder
bajo
Descubre más canciones de Don Tetto