Ha Vuelto A Suceder, Don Tetto (bajo)

Autor: Anónimo | 20236 visualizaciones



Min: 0.01 se la toca dos veces
|------------------------------------------------------------------------|
|------------------------------------------------------------------------|
|---0-0--0000000000000000----------------5-5-XXXXX-5-5-XXXXX-------------|
|------------------------0000000000000000-------------------0000000000000|

Min: 0.21
|--------------------------------------------------------------|
|--------------------------------------------------------------|
|---00-0-00-0-00-0-00---00-0-00-00-00--------------------------|
|---------------------0--------------0-------------------------|

Min: 0.27 Ha vuelto a suceder y jure………………. se toca dos veces
|----------------------------------------------------------------------|
|----------------------------------------------------------------------|
|----0-0-0000000000000000----------------5555555555555555--------------|
|------------------------0000000000000000----------------00000000000000|

Min: 0.46 necesito olvidarte…………………….    se toca dos veces
|---------------------------------------------------------------------|
|---------------------------------------------------------------------|
|---------------------5555555555555555-000000000000000----------------|
|-----2222222222222222--------------------------------0000000000000000|

Min: 1.06. Coro: ya ves ha vuelto a suceder no lo………. se toca dos veces
|----------------------------------------------------------------------|
|----------------------------------------------------------------------|
|----0-0000000000000000----------------5555555555555555----------------|
|----------------------0000000000000000----------------00000000000000--|

Min: 1.25
|------------------------------------------------------------------------|
|------------------------------------------------------------------------|
|---0-0--0000000000000000----------------5-5-XXXXX-5-5-XXXXX-------------|
|------------------------0000000000000000-------------------0000000000000|


Min: 1.36 Solo fui victima de la ocasión………………………       se toca dos veces
|------------------------------------------------------------------------|
|------------------------------------------------------------------------|
|----0-0-0000000000000000----------------5555555555555555----------------|
|------------------------0000000000000000----------------00000000000000--|

Min: 1.56 Necesito olvidarte………………..   se toca dos veces
|---------------------------------------------------------------------|
|---------------------------------------------------------------------|
|---------------------5555555555555555-000000000000000----------------|
|-----2222222222222222--------------------------------0000000000000000|



Min: 2.15 Coro Ya ves ha vuelto a suceder………………. se toca dos veces
|----------------------------------------------------------------------|
|----------------------------------------------------------------------|
|----0-0000000000000000----------------5555555555555555----------------|
|----------------------0000000000000000----------------00000000000000--|

Min: 2.35 ha vuelto a suceder no lo puedo entender…………….se toca dos veces
|----------------------------------------------------------------------|
|----------------------------------------------------------------------|
|----0-0000000000000000----------------5555555555555555----------------|
|----------------------0000000000000000----------------00000000000000--|

Outro min: 2.44 ya ves ha vuelto a suceder no0 lo…………………..
|----------------------------------------------------------------------|
|----------------------------------------------------------------------|
|----0-0000000000000000----------------5555555555555555----------------|
|----------------------0000000000000000----------------00000000000000--|

Y termina
|----------|
|----------|
|--0-0-----|
|----------|




esta es mi primera colaboracion a la cuerda..............
espero les guste......... esta super facil.........
cualquier coment a mi correo alexis_apunk@hotmail.com
luego vendran mas colaboraciones





Calificar esta versión:
Aviso: Este fichero es trabajo propio de su transcriptor y representa su interpretación personal de la canción. El material contenido en esta página es para exclusivo uso privado, por lo que se prohibe su reproducción o retransmisión, así como su uso para fines comerciales.
Más versiones de Ha Vuelto A Suceder, Don Tetto
Ha Vuelto A Suceder
acordes
Ha Vuelto A Suceder
tablatura
Ha Vuelto A Suceder (ver 2)
tablatura
Ha Vuelto A Suceder (ver 3)
tablatura
Ha Vuelto A Suceder
bajo
Descubre más canciones de Don Tetto