Adios, Don Tetto (tablatura)

Autor: alexnot | 21227 visualizaciones



Verso I          

1|------------------------------------------------------
2|---2-----2-----2----2-----2------2------3/2-3/2-3/2---
3|--2-2---2-2-----2----2-----2------2-------------------
4|-2-----2------2----2----4------4----------------------
5|-------------2----2----2------2-----------------------
6|------------------------------------------------------

                      Coro

1|---------xxxx------------xxxx------------xxxx------------xxxx
2|---------4444------------4444------------4444------------4444
3|-22222---4444----22222---4444----22222---4444------------4444
4|-22222---2222----22222---2222----22222---2222----22222---2222
5|---------2222------------2222------------2222----22222---2222
6|---------2222------------2222------------2222------------2222

2|-2h3p2h3p2h3p2h----------------------------------------------


Lo demas es igual Califiquen





Calificar esta versión:
Aviso: Este fichero es trabajo propio de su transcriptor y representa su interpretación personal de la canción. El material contenido en esta página es para exclusivo uso privado, por lo que se prohibe su reproducción o retransmisión, así como su uso para fines comerciales.
Más versiones de Adios, Don Tetto
Adios
acordes
Adios
tablatura
Adios
bajo
Descubre más canciones de Don Tetto