Adios, Don Tetto (acordes)

Autor: XxAEcheverExX | 18756 visualizaciones

a5b5csos5d5e5fsos5


PUNTEO INTRO [X2]
 
 E|------------------------------------------------------------|
 B|------2-------2-------2-------2-------2-------2-------------|
 G|----2---2---2---2---2---2---2---2---2---2---2---2-----------|
 D|----------------------------------0-------0-----------------|
 A|--0-------0-------2-------2---------------------------------|
 E|------------------------------------------------------------|

 E|----------------------|
 B|--3p2p0-3p2p0-3p2-----|
 G|----------------------|
 D|----------------------|
 A|----------------------|
 E|----------------------|

VERSO I
A5           B5            D5
  No he dejado de extrañarte, en mi mente siempre estas
A5      B5         D5
  Es inutil olvidarte, sin ti ya nada es igual
A5       B5               D5
  Y el vacio en mi interior, solo crece absorbiendo el dolor
A5         B5         C#5 D5  E5
  Como el de decir adioooos

CORO:
A5                                    F#5
 Hoy vas con rumbo hacia ningun lugar Y te puedo encontrar
A5                                           F#5
 Brillando en el cielo cuando el sol no esta En noches sin final
A5                            F#5
 Me pierdo, y el tiempo que pasa en silencio
E5
 Me recuerda que soy yo quien muere
A5
 Al momento en que te vas


 --------------------
 --2h3p2h3p2h3p2h----
 --------------------
 --------------------
 --------------------
 --------------------

EL RESTO DE LA CANCION ES =
VERSO II
Y tengo que confesar que extraño tu forma de hablar
Que las noches son mas frias en la cruda soledad
Que tu ausencia me envenena el alma, duele respirar
Sabiendo que ya no estas

CORO
Hoy vas con rumbo hacia ningun lugar
Y te puedo encontrar
Brillando en el cielo cuando el sol no esta
En noches sin final
Me pierdo, y el tiempo que pasa en silencio
Me recuerda que soy yo quien muere
Al momento en que te vas


PUNTEITO:

 E|--12--12--12--12--14--14--12--12--12--12--12--12--14--14--12--12--10--10--10--10--12--12--10--10---------------------------|
 B|----10--10--10--10--10--10--10--10--9---9---9---9---9---9---9---9---7---7---7---7---7---7---7---7---10b~-10b-12~12~12~12----|

Al momento en k te vas...





Comentarios del colaborador: bueno ami me salio asi espero les guste comentarios correcione sugerencias? ami.eche2307@hotmail.com TOMADO DE LACUERDA.NET

Calificar esta versión:
Aviso: Este fichero es trabajo propio de su transcriptor y representa su interpretación personal de la canción. El material contenido en esta página es para exclusivo uso privado, por lo que se prohibe su reproducción o retransmisión, así como su uso para fines comerciales.
Más versiones de Adios, Don Tetto
Adios
acordes
Adios
tablatura
Adios
bajo
Descubre más canciones de Don Tetto