Extrañando Casa, División Minúscula (tablatura) (ver 2)

Autor: Anónimo | 39564 visualizaciones



Después de ver los otros tabs de esta canción, me di cuenta de que 
les faltaban algo asi que tuve que sacar la canción y creo 
que esta bien aunque un poco larga , asi que decidan lo bien que esta mi tab

Intro

Gtr 1

e---------------------------------------------
B---------------------------------------------
G---7-7-7-7-7-7-7-7-7-7----7-7-7-7-7-7-7-7-7-
D---7-7-7-7-7-7-7-7-7-7----7-7-7-7-7-7-7-7-7-
A---5-5-5-5-5-5-5-5-5-5----5-5-5-5-5-5-5-5-5-
E----------------------------------------------

Gtr 2

e-------------------------------------------------------
B-----------------------------------------------------
G---7-7-7-7-7-7-7-7-7-7-----7-7-7-7-----------
D---7-7-7-7-7-7-7-7-7-7-----7-7-7-7---4-4-5-5-
A---5-5-5-5-5-5-5-5-5-5-----5-5-5-5---4-4-5-5-
E--------------------------------------------2-2-3-3-


Grt 1
e-------------------------------------------------------
B-----------------------------------------------------
G---7-7-7-7-7-7-7-7-7-7-----7-7-7-7-----------(x5)
D---7-7-7-7-7-7-7-7-7-7-----7-7-7-7---4-4-5-5-
A---5-5-5-5-5-5-5-5-5-5-----5-5-5-5---4-4-5-5-
E--------------------------------------------2-2-3-3-

Gtr2

e--------------------------------------------------------------------
B------8----6---8---------6---8--------6---8-----6---8----6---8-
G---6-----6------------6-------------6----------6---------6-------
D-------------------------------------------------------(x5)------
A-----------------------------------------------------------------
E-------------------------------------------------------------------






Verso 1

“Este cuarto sigue rechazándome....”

Gtr 1 y 2

e-------------------------------------------------------
B-----------------------------------------------------
G---7-7-7-7-7-7-7-7-7-7-----7-7-7-7-----------(x2)
D---7-7-7-7-7-7-7-7-7-7-----7-7-7-7---4-4-5-5-
A---5-5-5-5-5-5-5-5-5-5-----5-5-5-5---4-4-5-5-
E--------------------------------------------2-2-3-3-

e----------------------------------------
B----------------------------------------
G----------------------------------------
D----------------------------------------------
A---5-5-5-5-5-5-5-9-9-9-9-11-11-11-11-
E---3-3-3-3-3-3-3-7-7-7-7---9--9---9--9-

Gtr 1

e-----------------------------
B----------------------------
G----------------------------
D---x-x-8-8-x-x-8-8-8----
A---x-x-6-6-x-x-6-6-6----
E-----------------------------

Aooooo!

Gtr 1

e-------------------------
B------------------------
G------------------------
D---4-4-4-4-5-5-5-5---
A---4-4-4-4-5-5-5-5---
E---2-2-2-2-3-3-3-3---

e--------------------------
B-------------------------
G------------------------
D---x-x-8-8-x-x-8-8-8--
A---x-x-6-6-x-x-6-6-6--
E---------------------------





Gtr 1y 2

e-------------------------
B------------------------
G------------------------
D---4-4-4-4-5-5-5-5---
A---4-4-4-4-5-5-5-5---
E---2-2-2-2-3-3-3-3---

e---------------------------------
B--------------------------------
G--------------------------------(x2)
D---8-8-8-8-8-8-9-9-9-7-7-7-
A---8-8-8-8-8-8-9-9-9-7-7-7-
E---6-6-6-6-6-6-7-7-7-5-5-5-


“Que paso con mis amigos....”

e----------------------8----------------------------7---8---7--
B-------10---8---7-----7-------------10---8-----------------
G---8-----------------------10---8----------------------------
D--------------------------------------------------------(x4)--
A---------------------------------------------------------------
E---------------------------------------------------------------

“Creo que no sobreviviré...”

e----------------------------------------
B----------------------------------------
G----------------------------------------
D----------------------------------------------
A---5-5-5-5-5-5-5-9-9-9-9-11-11-11-11-
E---3-3-3-3-3-3-3-7-7-7-7---9--9---9--9-

Coro

“Me atrevo a decir...”

e----------------------------------------------------------
B---------------------------------------------------------
G---7-7-7-7-7-7-7--------------------------------------
D---7-7-7-7-7-7-7---4-4-4-4-5-5-5-5-4-4-4-5-5-5-
A---5-5-5-5-5-5-5---4-4-4-4-5-5-5-5-4-4-4-5-5-5-
E-----------------------2-2-2-2-3-3-3-3-2-2-2-3-3-3-





Gtr2
*
e--------------------------------------------------------------------
B------8----6---8---------6---8--------6---8-----6---8----6---8-
G---6-----6------------6-------------6----------6---------6-------
D-------------------------------------------------------(x5)------
A-----------------------------------------------------------------
E-------------------------------------------------------------------

Grt 1*
e-------------------------------------------------------
B-----------------------------------------------------
G---7-7-7-7-7-7-7-7-7-7-----7-7-7-7-----------(x5)
D---7-7-7-7-7-7-7-7-7-7-----7-7-7-7---4-4-5-5-
A---5-5-5-5-5-5-5-5-5-5-----5-5-5-5---4-4-5-5-
E--------------------------------------------2-2-3-3-

*La 1era guitarra entra a la segunda vez que se toca el riff
de la 2da guitarra

“hey mama  me quiero....”

1y 2 gtr.
e----------------------------------------
B----------------------------------------
G----------------------------------------
D----------------------------------------------
A---5-5-5-5-5-5-5-9-9-9-9-11-11-11-11-
E---3-3-3-3-3-3-3-7-7-7-7---9--9---9--9-


Coro

“Me atrevo a decir...”

e----------------------------------------------------------
B---------------------------------------------------------
G---7-7-7-7-7-7-7--------------------------------------(x2)
D---7-7-7-7-7-7-7---4-4-4-4-5-5-5-5-4-4-4-5-5-5-
A---5-5-5-5-5-5-5---4-4-4-4-5-5-5-5-4-4-4-5-5-5-
E-----------------------2-2-2-2-3-3-3-3-2-2-2-3-3-3-

(Lo que sigue esta algo cañón espero que le entiendan)

las guitarra tocan lo mismo en toda la ultima parte,
solo que la segunda guitarra entra a la 5 vez  de la 1era

gtr. 1

e-----------------------------------
B---------------------------------
G--------------------------------
D---4-----4/5----5-5-----------(x12)
A---4-----4/5----5-5-----------
E---2-----2/3----3-3------------

Gtr. 2
e------------------------
B-------------8/10-----
G---6-6-6-------------(x8)
D----------------------
A----------------------
E----------------------

Lo ultimo

1 guitarra

e--------------------------------
B---------------------------
G------------------------
D---5-5-5/7--------------
A---5-5-5/7------------
E---3-3-3/5------------

Gtr. 2
e------------------------
B-------------8/10-----
G---6-6-6-------------
D----------------------
A----------------------
E----------------------


Esta canción es una de mis favoritas de este disco
 el primero y ultimo de división ya que se van a separar, lastima





Calificar esta versión:
Aviso: Este fichero es trabajo propio de su transcriptor y representa su interpretación personal de la canción. El material contenido en esta página es para exclusivo uso privado, por lo que se prohibe su reproducción o retransmisión, así como su uso para fines comerciales.
Más versiones de Extrañando Casa, División Minúscula
Extrañando Casa
tablatura
Extrañando Casa (ver 2)
tablatura
Extrañando Casa (ver 3)
tablatura
Extrañando Casa
bajo
Descubre más canciones de División Minúscula