Extrañando Casa, División Minúscula (bajo)

Autor: Anónimo | 28272 visualizaciones



Que onda banda, para richar esta gran cancion.
Sludines a  zaw a andres y a todos los rokers y a evelyn.
Aquí con mi primer tab para el bajo espero les guste

Empieza sola la guitarra,
y luego el bajo entra con la otra guitarra y hacen esto
Intro:
-----------------------------------------------
-----------------------------------------------
-5-5-5-5-5-5-5---------------------------------     x4
-------------------2-2-2---3-3-3---------------
 Verso:
-----------------------------------------------------------------
-----------------------------------------------------------------
-5-5-5-5-5-5-5-------------------5-5-5-5-5-5-5-------------------
------------------2-2-2---3-3-3------------------2-2-2---3-3-3---
Este Cuarto Sigue Rechazandome,  aun y cuando es mi lugar

---------------------------
---------------------------
--------------------5------
-5----3-------5------------
Creo Que, no sobreviviré.

Cheka esta parte la x  indica una pausa
porque la guitarra hace un requinto
INTERMEDIO:
---------------------------
---------xxx---------------
-555-----xxx---------------   x2
---------xxx--2-2-2---3-3-3
aquí no hay pasusa
-----------------------------------------------
-----------------------------------------------
-5-5-5-5-5-5-5--------------------------------- x2
-------------------2-2-2---3-3-3---------------

Verso:
------------------------------------------------------------------
------------------------------------------------------------------
-5-5-5-5-5-5-5--------------------5-5-5-5-5-5-5-------------------
------------------2-2-2---3-3-3-------------------2-2-2---3-3-3---
Que pasó con mis amigos y el amor,se olvidaron ya de mi
-------------------------------------------------------------------
-------------------------------------------------------------------
5-5-5-5-5-5-5---------------------5-5-5-5-5-5-5--------------------
-----------------2-2-2---3-3-3---------------------2-2-2---3-3-3---
y mi perro y su triste expresión,a mis problemas,a mis problemas del amor
---------------------------
---------------------------
--------------------5------
-5----3-------5------------
Creo Que, no sobreviviré.

CORO:
--------------------------------------------------------------------
--------------------------------------------------------------------
5-5-5---------------------------------------------------5-5-5-------
---------5-5-5-5------3-3-3-3----2-2-2-2-----5-5-5------------------
Me atrevo a decir que esto es ,lo mas dificil que jamas vivi
--------------------------------------------------------------------
--------------------------------------------------------------------
5-5-5---------------------------------------------------5-5-5-------
---------5-5-5-5------3-3-3-3----2-2-2-2-----5-5-5------------------
y nunca pense en la libertad como algo frio y soltario oh.

Se repite el Intro:
Intro:
-----------------------------------------------
-----------------------------------------------
-5-5-5-5-5-5-5---------------------------------     x4
-------------------2-2-2---3-3-3---------------

-----------------------------
-----------------------------
-------------------------5---
--5-----3--------5-----------
 Hey Mama,me quiero regresar

CORO:
--------------------------------------------------------------------
--------------------------------------------------------------------
5-5-5---------------------------------------------------5-5-5-------
---------5-5-5-5------3-3-3-3----2-2-2-2-----5-5-5------------------
Me atrevo a decir que esto es ,lo mas dificil que jamas vivi
--------------------------------------------------------------------
--------------------------------------------------------------------
5-5-5---------------------------------------------------5-5-5-------
---------5-5-5-5------3-3-3-3----2-2-2-2-----5-5-5------------------
y nunca pense en la libertad como algo frio y soltario oh.

Outro
-----
-----
----- x3
--5—-

-----
-----
----- x9
--5—-

y el ultimo
------
------
------
--5/0-
bueno  eso  es todo   tambien les puedo mandar
tabs para la guitarra  de  culquier cancion
cualquier cosa   a  mi  mail     [email protected]





Calificar esta versión:
Aviso: Este fichero es trabajo propio de su transcriptor y representa su interpretación personal de la canción. El material contenido en esta página es para exclusivo uso privado, por lo que se prohibe su reproducción o retransmisión, así como su uso para fines comerciales.
Más versiones de Extrañando Casa, División Minúscula
Extrañando Casa
tablatura
Extrañando Casa (ver 2)
tablatura
Extrañando Casa (ver 3)
tablatura
Extrañando Casa
bajo
Descubre más canciones de División Minúscula