Cursi, División Minúscula (tablatura) (ver 2)

Autor: Anónimo | 26485 visualizaciones



que pedo, ahi les va el intro bien hecho y 
tambien el solo, esta bien papa, pueden usar los acordes 
de la otra transcripcion, nada mas haganlos en power chords
mi mail es metal_messiah11@hotmail, cualquier duda, agreguenme no hay pedo
Chido

INTRO
---------------------------------------------------------------------------------------------------------------------------
---------------------------------------------------------------------------------------------------------------------------
---------------10-10-9---------------10-10-9--------------10-10-9---------------------------------------10-10-9------------
-10-10-10-8-8----------10-10-10-8-8---------10-10-10-8-8----------12-12-12-10-10-10-10-----10-10-10-8-8---------12---------
---------------------------------------------------------------------------------------------------------------------------
---------------------------------------------------------------------------------------------------------------------------

Solo (se repite el intro y luego va esto)

-------------------------------------------------------------------------
-------------------------------------------------------------------------
----10-9-10-9----12-10-9-10-------------------------------12-10-9--------
-10-----------10------------10-10-10-10-10-12-10-10-10-10---------12-----
-------------------------------------------------------------------------
-------------------------------------------------------------------------

-------------------------------------------------------------------------------------
-------------------------------------------------------------------------------------
----10-9-------------------------------------12-10-9-7-7-7-7-7-7-7-8-7---------7-----
-10------12-10-10-10-10-10-10-12-10-10-10-10---------------------------10-8-10-------
-------------------------------------------------------------------------------------
-------------------------------------------------------------------------------------





Calificar esta versión:
Aviso: Este fichero es trabajo propio de su transcriptor y representa su interpretación personal de la canción. El material contenido en esta página es para exclusivo uso privado, por lo que se prohibe su reproducción o retransmisión, así como su uso para fines comerciales.
Más versiones de Cursi, División Minúscula
Cursi
acordes
Cursi
tablatura
Cursi (ver 2)
tablatura
Cursi (ver 3)
tablatura
Cursi
bajo
Cursi
bateria
Descubre más canciones de División Minúscula