Cursi, Division Minuscula (bajo)

Autor: juan-punk | 23098 visualizaciones



g|--------------------|    intro
d|--------------------|
a|--1-5-3-1-3---------|
e|-1-1----------------|

cuando entra la voz va esto
g|-----------------------------------|
d|-----------------------------------|
a|---------111111111--------11111111-|
e|-11111111---------11111111---------|

g|-----------------------------------|
d|-----------------------------------|
a|55555555-33333333-1111111111111111-|
e|-----------------------------------|


g|-----------------------------------|
d|-----------------------------------|
a|---------111111111--------11111111-|
e|-11111111---------11111111---------|

g|-----------------------------------|
d|-----------------------------------|
a|55555555-33333333-1111111111111111-|
e|-----------------------------------|


g|---------------------------------------|
d|---------------------------------------|
a|-55555555-33333333-11111111-3333333333-|
e|---------------------------------------|

el coro es
g|---------------------|
d|---------------------|
a|----3-33-11111111----|(x3)
e|-1-1-----------------|


g|------------------------------|
d|------------------------------|
a|-55555555-33333333-11111111-3-|
e|------------------------------|

aki hay un puente

g|--------------------------------------|
d|--------------------------------------|
a|--------------------------------------|
e|-11111111-66666666-111111111-66666666-|


g|-----------------------------------|
d|-----------------------------------|
a|---------111111111--------11111111-|
e|-11111111---------11111111---------|

g|-----------------------------------|
d|-----------------------------------|
a|55555555-33333333-1111111111111111-|
e|-----------------------------------|


g|-----------------------------------|
d|-----------------------------------|
a|---------111111111--------11111111-|
e|-11111111---------11111111---------|

g|-----------------------------------|
d|-----------------------------------|
a|55555555-33333333-1111111111111111-|
e|-----------------------------------|


g|---------------------------------------|
d|---------------------------------------|
a|-55555555-33333333-11111111-3333333333-|
e|---------------------------------------|

el coro es
g|---------------------|
d|---------------------|
a|----3-33-11111111----|(x3)
e|-1-1-----------------|



g|------------------------------|
d|------------------------------|
a|-55555555-33333333-11111111-3-|
e|------------------------------|

regresas al intro

en el requinto es

g|-----------------------------------|
d|-----------------------------------|
a|---------111111111--------11111111-|
e|-11111111---------11111111---------|

g|-----------------------------------|
d|-----------------------------------|
a|55555555-33333333-1111111111111111-|
e|-----------------------------------|


g----------------------------|
d----------------------------|
a-55555555-33333333-11111111-|
e----------------------------|





Comentarios del colaborador: Esper0 que les gust...les dejo mi correo [email protected]

Calificar esta versión:
Aviso: Este fichero es trabajo propio de su transcriptor y representa su interpretación personal de la canción. El material contenido en esta página es para exclusivo uso privado, por lo que se prohibe su reproducción o retransmisión, así como su uso para fines comerciales.
Más versiones de Cursi, Division Minuscula
Cursi
acordes
Cursi
tablatura
Cursi (ver 2)
tablatura
Cursi (ver 3)
tablatura
Cursi
bajo
Cursi
bateria
Descubre más canciones de Division Minuscula