Cada Martes, División Minúscula (acordes) (ver 2)

Autor: Anónimo | 38274 visualizaciones

aasosasuscsoscsosmdsoseesusfsosfsosmfmgsos


Hola banda que tal, les paso a dejar está hermosa canción para que al disfruten
se toca medio tono abajo o la pueden tocar normal, la afinación es:

D# G# C# F# A# D#

Si la gustan tocar normal pero en acústica los acordes son:

G# [A] D# [E] Fm [F#m]Cm [C#m]

pues bueno a disfrutar!

El intro es así:

A E A E F#m EX2

D#--------------------------------------------------------------------
G#--------------------------------------------------------------------
C#---------2h5-----------------2h5------------------------------------
F#-----2v-----2h5-----2v---2v------2h5-----2v----2---2/4v4v4v--------- X2
A#---5------------2-0----5------------2-0------5----------------------
D#--------------------------------------------------------------------

A       E         A     E
Despiertas, cada Martes,
        F#m                        E
Cuando Don Melancolía viene a buscarte,
    A   E        A    E
Murmuras al marcharte
 F#m                       E
Jamás voy a volver a suplicarle
  A    E          A   E
Y aunque es muy fría
      F#m            E
Esta noche, esta esquina..
    A    E
En casa neva…
   A   E          A  E
Y aunque es muy fría
      F#m         C#m
Esta noche, esta vida
              E
En casa neva cada día…

A    E  F#m     E
Fuiste mejor de lo que
A     E        F#m
Tú pudiste imaginar
A           E        F#m
Cuando todo no es suficiente
   E              A
Y sabes que los dementes
    E          F#m   E
son ellos y no tu…uhu

A E A E F#m EX2

D#--------------------------------------------------------------------
G#--------------------------------------------------------------------
C#---------2h5-----------------2h5------------------------------------
F#-----2v-----2h5-----2v---2v------2h5-----2v----2---2/4v4v4v--------- X2
A#---5------------2-0----5------------2-0------5----------------------
D#--------------------------------------------------------------------

[En está parte la guitarra de javier solo ha esto]

  [el * es donde cambia el arpegio, de preferencia escuchen los cambios]
D#---------------------------------------------------------
A#---------------------------------------------------------
C#--2--2--2--2--2--2--2--2--2--2--2--2--2--2--2--2---------
F#---------------------------------------------------------
A#---2--2--2--2--0--0--0--0--2--2--2--2--0--0--0--0--------
D#---------------------------------------------------------

la otra guitarra hace esto

A       E *       A   E *
Despiertas, cada Martes,
        F#m           *
Cuando tus errores logran
      E     *
Alcanzarte…
 A    E *      A   E *
Empiezan a golpearte
      F#m              *         E
Las palabras de quien menos esperaste
  A    E          A   E
Y aunque es muy fría
      F#m            E
Esta noche, esta esquina..
    A    E
En casa neva…
   A   E          A  E
Y aunque es muy fría
      F#m         C#m
Esta noche, esta vida
              E
En casa neva cada día…

A    E  F#m     E
Fuiste mejor de lo que
A     E        F#m
Tú pudiste imaginar
A           E        F#m
Cuando todo no es suficiente
   E              A
Y sabes que los dementes
    E          F#m   E
son ellos y no tu…uhu

D#----------------
A#----------------
C#--2--2--2--2--2-
F#---------------- X3
A#---2--2--2--2---
D#----------------

en cada cambio se hace un rasgueo

A Esus E

D#-------------------------------
A#-------------------------------
C#-------------------------------
F#--------2----------------------
A#----3-2---2-3------------------ X11
D#--5-----------5 ---------------

A Asus Esus E

A
Fuiste mejor de lo que

Tú pudiste imaginar..


A    E  F#m     E
Fuiste mejor de lo que
A     E        F#m
Tú pudiste imaginar
A           E        F#m
Cuando todo no es suficiente
   E              A
Y sabes que los dementes
    E          F#m   E
son ellos y no tu…uhu

A    E  F#m     E
Fuiste mejor de lo que
A     E        F#m
Tú pudiste imaginar
A           E        F#m
Cuando todo no es suficiente
   E              A
Y sabes que los dementes
    E          F#m   E
son ellos y no tu…uhu

A E F#m E

Gracias espero les guste y le puedan dar un like a mi grupo
https://www.facebook.com/pages/Old-Killers/491550620889158?ref=stream
disfruten la tab cualquier cosa déjenos un mensaje! gracias!!





Calificar esta versión:
Aviso: Este fichero es trabajo propio de su transcriptor y representa su interpretación personal de la canción. El material contenido en esta página es para exclusivo uso privado, por lo que se prohibe su reproducción o retransmisión, así como su uso para fines comerciales.
Más versiones de Cada Martes, División Minúscula
Cada Martes
acordes
Cada Martes (ver 2)
acordes
Cada Martes
tablatura
Descubre más canciones de División Minúscula