Cada Martes, División Minúscula (acordes)

Autor: Anónimo | 19654 visualizaciones

adefsosm


ESTA TAB ES UNA VERSION EN ACUSTICO

DE D 

INTRO: A-E-F#m-D-E

riff 1 o intro

E |-----------------------------------------------------------|
B |-5~-------------2p0-----5~-------------2p0-----5~----------|
G |----2~------2h4-----2------2~------2h4-----2------2~---2/4-|
D |--------2h4--------------------2h4-------------------------|
A |-----------------------------------------------------------|
E |-----------------------------------------------------------|


E      A            E
 Despiertas, cada martes,
         F#m                       E
 Cuando con melancolía viene a buscarte,
      A            E
 Murmuras, al marcharte,
     F#m                     E
 Jamás voy a volver a suplicarle.
    A-E             F#m
 Y aunque, es muy fría,
        D            E
 Esta noche, esta esquina,
D         E
 En casa neva.

    A-E             F#m
 Y aunque, es muy fría,
        D           E
 Esta noche, esta vida,
D          E
 En casa neva cada día.

A          F#           D               F#m
 Fuiste mejor, de lo q tú pudiste imaginar,
A                         F#m
 Cuando todo no es suficiente,
                   A                    E
 Y sabes q los dementes son ellos y no tu.

A-E-F#m-D-E

riff 1

E |-----------------------------------------------------------|
B |-5~-------------2p0-----5~-------------2p0-----5~----------|
G |----2~------2h4-----2------2~------2h4-----2------2~---2/4-|
D |--------2h4--------------------2h4-------------------------|
A |-----------------------------------------------------------|
E |-----------------------------------------------------------|


E      A            E
 Despierta, cada martes,
         F#m                       E
 Cuando tus errores logran alcanzarte,
       A            E
 Empiezan, a golpearte,
       F#m                        E
 Las palabras de quien menos esperaste.

   A-E             F#m
 Y aunque, es muy fría,
      D       E
 Esta noche, esta esquina,
 D          E
 En casa neva,

A-E             F#m
 Y aunque, es muy fría,
      D       E
 Esta noche, esta esquina,
D          E
 En casa neva cada día.



 A          F#           D               F#m
 Fuiste mejor, de lo q tú pudiste imaginar,
A                         F#m
 Cuando todo no es suficiente,
                   A                    E
 Y sabes q los dementes son ellos y no tu

A-E-F#m-Dx 2 antes de el bridge
BRIDGE

E |-----5-------5------5------|
B |------4----4--4----4-4-----|
G |-------3--3-----3-3---3----|CUANTAS VECES SEA NECESARIO
D |--------2--------2-----2---|
A |---------------------------|
E |---------------------------|

Y EN LA VERSION NORMAL LA
GUITRRA 2 ENTRARIA CON ESTO:

E-5-4-2-4-2h4-2h4-----------|x muchas veces tambn
B---------------------------|
G---------------------------|
D---------------------------|
A---------------------------|
E---------------------------|


Fuiste mejor, de lo q tú pudiste imaginar,

 A          F#           D               F#m
 Fuiste mejor, de lo q tú pudiste imaginar,
A                         F#m
 Cuando todo no es suficiente,
                   A                    E
 Y sabes q los dementes son ellos y no tu.

A          F#           D               F#m
 Fuiste mejor, de lo q tú pudiste imaginar,
A                         F#m
 Cuando todo no es suficiente,
                   A                    E
 Y sabes q los dementes son ellos y no tu
y asi termina
A-E-F#m-D


ahi ESTA CUALQUER DUDA O SUGERENCIA EN MI CORREO





Calificar esta versión:
Aviso: Este fichero es trabajo propio de su transcriptor y representa su interpretación personal de la canción. El material contenido en esta página es para exclusivo uso privado, por lo que se prohibe su reproducción o retransmisión, así como su uso para fines comerciales.
Más versiones de Cada Martes, División Minúscula
Cada Martes
acordes
Cada Martes (ver 2)
acordes
Cada Martes
tablatura
Descubre más canciones de División Minúscula