Sin Medir Distancias, Diomedes Diaz (tablatura) (ver 2)

Autor: angugoar | 42865 visualizaciones

-------------------------------------------------
Tema : Sin medir distancia
Autor : Gustavo Gutiérrez
Tono : MI bemol
Afinación : Eb, 0.1
Aire : Paseo
Transcribe : Guitarra Vallenata
Versión de tab. : 1.1 (27feb2011)
-------------------------------------------------
(INTRODUCCION)
     Eb       Ab                 Bb
\
E|---8----6---6---4---4---3---4---
B|-------------------------------
G|---8----7---7---5---5---3---5--
D|---10---8---8---6---6---5---6--
A|-------------------------------
E|--------------------------------
/
                     Eb
\
E|-------3---4---6---4---3---------
B|---6-----------------------------
G|-------3---5---6---5---3---------
D|---6---5---6---8---6---5---------
A|---8------------------------------
E|--------------------------------
/
     Cm       Fm                  Bb
\
E|---4----3---3--------------------
B|----------------6---6---4---6----
G|---5----3---3---------------------
D|---6----5---5---6---6---5---6----
A|----------------8---8---6---8----
E|----------------------------------
/
                         Eb
\
E|---------------3-------------------
B|---3---4---6-------6---4-----------
G|---------------3-------------------
D|---3---5---6---5---6---5-----------
A|---5---6---8-------8---6-----------
E|-----------------------------------
/
-------------------------------------------------
Encuentra más tablaturas vallenatas en
www.guitarravallenata.com
-------------------------------------------------

Comentarios del colaborador: http://guitarravallenata.com/canciones/diomedes_diaz/punteos/diomedes_diaz_sin_medir_distancias_intro_req.pdf

Calificar esta versión:
Aviso: Este fichero es trabajo propio de su transcriptor y representa su interpretación personal de la canción. El material contenido en esta página es para exclusivo uso privado, por lo que se prohibe su reproducción o retransmisión, así como su uso para fines comerciales.
Más versiones de Sin Medir Distancias, Diomedes Diaz
Sin Medir Distancias
acordes
Sin Medir Distancias
tablatura
Sin Medir Distancias (ver 2)
tablatura
Descubre más canciones de Diomedes Diaz