Pide Al Tiempo, Dildo (tablatura)

Autor: Anónimo | 14346 visualizaciones


- INTRO -

E |--------------------------------|
B |-------3---3-2-2---2-2h3--------|
G |--------------------------------|
D |---0-0---0----------------------|
A |--------------------------------|
E |--------------------------------| X4


 - INTRO / FIGURA 1 -

E |-0-0-2-2-0-0-0-0-0h2--x2x2x2-0-0-0-0-0-0-0------0-0-0-0-0------0-0-0-0|
B |-3-3-3-3-3-3-3-3-3-3--x3x3x3-3-3-3-3-3-3-5/----/5-5-5-5-5/-----5-5-5-5|
G |-2-2-2-2-2-2-2-2-2-2--x2x2x2-2-2-2-2-2-2-6/4--4/6-6-6-6-6/4--4/6-6-6-6|
D |-----------------------------------------7/4--4/7-7-7-7-7/4--4/7-7-7-7|
A |------------------------------------------/2--2/---------/2--2/-------|
E |----------------------------------------------------------------------|X2

    Dsus2  D      Dsus2          D      Dsus2     B5              B5




Dsus2                             B5
Y tal vez los sueños no lo son como crees

Dsus2                    B5
y tal vez no lo sepas jamas

Dsus2               B5
y despues ya sin imaginacion

Dsus2                 B5
desperte, supe que paso



G5                              Dsus2
Podria sin razon lanzarte a la vida

G5                               A5
Podria suceder no se puede quedar atras


Atras (FIGURA 1)



Dsus2                             B5
Y tal vez los sueños ya no quieran ser

Dsus2                      B5
como fue, como cuando estas tu



G5                              Dsus2
Podria sin razon lanzarte a la vida

G5                               A5
Podria suceder no se puede quedar atras


Atras (SOLO)


- SOLO -

E|------------------------------------------------------0xx0xx0-|
B|--10-10-10-/-8-8-8-8/-7-7/-5-5-5-5-5-5-/-3-3-3-3-3-3--3xx3xx3-|
G|------------------------------------------------------2xx2xx2-|
D|--------------------------------------------------------------|
A|--------------------------------------------------------------|
E|--------------------------------------------------------------| X4


G5                              Dsus2
Podria sin razon lanzarte a la vida

G5                               A5
Podria suceder no se puede quedar atras


Atras (SOLO) X6


-- Saludos a toda la banda del POSS y ULSA
Paradox 4ever !
Dudas o correciones a nirvana_apologies@hotmail.com
Calificar esta versión:
Aviso: Este fichero es trabajo propio de su transcriptor y representa su interpretación personal de la canción. El material contenido en esta página es para exclusivo uso privado, por lo que se prohibe su reproducción o retransmisión, así como su uso para fines comerciales.
Más versiones de Pide Al Tiempo, Dildo
Pide Al Tiempo
acordes
Pide Al Tiempo
tablatura
Pide Al Tiempo
bajo
Descubre más canciones de Dildo