Pide Al Tiempo, Dildo (bajo)

Autor: Anónimo | 29905 visualizaciones

Buena rola!!!
Solo escuchenla para que valla con la voz

Intro
G|---------------------------------------------------
D|---------------------------------------------------
A|-5—-505----5---505----2--202----2--200-------------
E|---------------------------------------------------


Verso1
   Y tal vez los sueños no son como crees
G|-------------------------4----------4--------------
D|---------------------------------------------------
A|-5—-505----5---505----2---202----2---200-----------
E|---------------------------------------------------
   Y tal vez no lo sepas jamás
G|-------------------------4----------4--------------
D|---------------------------------------------------
A|-5—-505----5---505----2---202----2---200-----------
E|---------------------------------------------------
   Y talvez ya sin imaginación
G|-------------------------4----------4--------------
D|---------------------------------------------------
A|-5—-505----5---505----2---202----2---200-----------
E|---------------------------------------------------
   Desperté, no supe que paso
G|-------------------------4----------4--------------
D|---------------------------------------------------
A|-5—-505----5---505----2---202----2---200-----------
E|---------------------------------------------------

Coro
   Podría sin razón… lanzarte a la vida
G|---------------------------------------------------
D|---------------------------------------------------
A|-----------------------5--555-----5--555-----------
E|-3--333----3--3333---------------------------------

   Podría suceder… no se puede quedar atrás… tan atrás
G|---------------------------------------------------
D|---------------------------------------------------
A|---------------------------------------------------
E|-3--333----3--3333-----5--555-----5--555-----------

inter
G|---------------------------------------------------
D|---------------------------------------------------
A|-5—-505----5---505----2--202----2--200-------------
E|---------------------------------------------------

Verso2
   Y tal vez los sueños ya no quieran ser
G|-------------------------4----------4--------------
D|---------------------------------------------------
A|-5—-505----5---505----2---202----2---200-----------
E|---------------------------------------------------
   Como fue, como cuando estabas tuuuu… eh eh eh eh eh eh
G|-------------------------4----------4--------------
D|---------------------------------------------------
A|-5—-505----5---505----2---202----2---200-----------
E|---------------------------------------------------


Coro
   Podría sin razón… lanzarte a la vida
G|---------------------------------------------------
D|---------------------------------------------------
A|-----------------------5--555-----5--555-----------
E|-3--333----3--3333---------------------------------

   Podría suceder… no se puede quedar atrás… atrás
G|---------------------------------------------------
D|---------------------------------------------------
A|---------------------------------------------------
E|-3--333----3--3333-----5--555-----5--555-----------

Guitarra sola…

   Podría sin razón… lanzarte a la vida…
G|---------------------------------------------------
D|---------------------------------------------------
A|-----------------------5--555-----5--555-----------
E|-3--333----3--3333---------------------------------

   Podría suceder… no se puede quedar atrás…
G|---------------------------------------------------
D|---------------------------------------------------
A|---------------------------------------------------
E|-3--333----3--3333-----5--555-----5--555-----------

   Atraaaaaaaaaaaaaaaaaaaaaaaaaaaaaaaaaaa…
G|-------------------------4----------4--------------
D|---------------------------------------------------
A|-5—-505----5---505----2---202----2---200-----------
E|---------------------------------------------------
Calificar esta versión:
Aviso: Este fichero es trabajo propio de su transcriptor y representa su interpretación personal de la canción. El material contenido en esta página es para exclusivo uso privado, por lo que se prohibe su reproducción o retransmisión, así como su uso para fines comerciales.
Más versiones de Pide Al Tiempo, Dildo
Pide Al Tiempo
acordes
Pide Al Tiempo
tablatura
Pide Al Tiempo
bajo
Descubre más canciones de Dildo