Señora, Denisse De Kalafe (tablatura) (ver 2)

Autor: Anónimo | 36370 visualizaciones



ahí les va otro intro solo agarren ritmo y la sacaran

6---------------------------------------------------
5---------------------------------------------------
4---------------------------------------------------
3---------------------------------------------------
2-----------------------3-1-3-----------------------
1-0-2222-222-0-2-3-2-2-0-----0-7-777-777-5-00-2-33-2




6----------------------------------------------------
5----------------------------------------------------
4----------------------------------------------------
3------------------------------------------5---------
2--3333-7-5-7-5-8-7-5-8-7-5-5-3-7-5-3-7-5-3-3-5-7-5-3
1----------------------------------------------------



sale cualquer duda aganmela saber


----SALYM----


LORE.
TE ADORO
PIOJA





Calificar esta versión:
Aviso: Este fichero es trabajo propio de su transcriptor y representa su interpretación personal de la canción. El material contenido en esta página es para exclusivo uso privado, por lo que se prohibe su reproducción o retransmisión, así como su uso para fines comerciales.
Más versiones de Señora, Denisse De Kalafe
Señora
acordes
Señora (ver 2)
acordes
Señora
tablatura
Señora (ver 2)
tablatura
Señora (ver 3)
tablatura
Descubre más canciones de Denisse De Kalafe