Señora, Denisse De Kalafe (tablatura)

Autor: Anónimo | 23052 visualizaciones



esto es solo un areglo q puedn hacr



e|---2-2-2-2-2-2-2-0-2-3-2-2-0--|--7-7-7-7-7-7-7-5-0-0-2-3-3-2|2-0|
b|-----------------------------3|-----------------------------|---|
g|-2----------------------------|7----------------------------|---|
d|------------------------------|-----------------------------|---|
a|------------------------------|-----------------------------|---|
e|------------------------------|-----------------------------|---|



e|--------------2-0---2-0-|-0-3-2-0-3-2-2-0---|---2-0---2-0-------|
b|3-0-0-0-0-2-3-----3-----|-----------------3-|-0-----3-----0-3-2-|
g|------------------------|-------------------|-------------------|
d|------------------------|-------------------|-------------------|
a|------------------------|-------------------|-------------------|
e|------------------------|-------------------|-------------------|



e|-------------|
b|-2-2-3-5-5-3-|
g|-------------|
d|-------------|
a|-------------|
e|-------------|



RE                    LA               SIm
a ti que me diste tu vida tu amor y tu espacio

 SOL                    LA                 RE      RE7
a ti que cargaste en tu bientre dolor y cansancio

SOL                  LA7
ati que peleaste con uñas y dientes

  FA#m                    SIm
valiente en tu casa y en cualquier lugar

  MIm
a ti rosa fresca de abril

  LA
a ti mi fiel querubi



a ti te dedico mis versos mi ser mis victorias
a ti mis respetos señora señora señora
y para no hacer tanto alarde
de esa mujer de quien hablo
es linda mi amiga gaviota
su nombre es mi vadre





Calificar esta versión:
Aviso: Este fichero es trabajo propio de su transcriptor y representa su interpretación personal de la canción. El material contenido en esta página es para exclusivo uso privado, por lo que se prohibe su reproducción o retransmisión, así como su uso para fines comerciales.
Más versiones de Señora, Denisse De Kalafe
Señora
acordes
Señora (ver 2)
acordes
Señora
tablatura
Señora (ver 2)
tablatura
Señora (ver 3)
tablatura
Descubre más canciones de Denisse De Kalafe