Mundo De Caramelo, Danna Paola (tablatura)

Autor: sonac32 | 29195 visualizaciones

Los acordes son los correctos
siempre y cuando se apliquen como estan abajo ok?

          Acordes utilizados
    D#    A#   Cm     G#   Fm    Gm
e)--3--|--1--|--3--|--4--|--1--|--3--]
B)--4--|--3--|--4--|--4--|--1--|--3--]
G)--3--|--3--|--5--|--5--|--1--|--3--]
D)--5--|--3--|--5--|--6--|--3--|--5--]
A)--6--|--1--|--3--|--6--|--3--|--5--]
E)--3--|--1--|--3--|--4--|--1--|--3--]

?MUNDO DE CARAMELO?

INTRO:
      
e)-----------|-----------|-------------|---------------------]
B)-----------|-----------|-------------|---------------------]
G)-------3---|-------3---|-----3-------|---------------------]
D)-----5---5-|-----3---3-|---5---5-----|-------6---------8---]
A)-5/6-------|-6/5-------|-3-----------|-----6---6-----8-----]
E)-----------|-----------|-------------|-3/4-------4/6-------]
      
e)-----------|-----------|-------------|--------------]
B)-----------|-----------|-------------|--------------]
G)-------3---|-------3---|-----3-------|--------------]
D)-----5---5-|-----3---3-|---5---5-----|-----6--------]
A)-5/6-------|-6/5-------|-3-----------|---6----------]
E)-----------|-----------|-------------|-4-----6----6-]


          D#
Hazme un mundo de caramelo
          A#
Llena él aire con algodón
        Cm
Que los dulces caigan del cielo
        A#
Las estrellas piñatas son
      G#
De repente las alegrías
        D#
Se me antojan de corazón
       Fm
Sí me como a besos la vida
      A#
Chocolates los sueños son...

     D#                            A#
e)-----------|              e)|-----------|
B)-----------|              B)|-----------|
G)-------3---|              G)|-------3---|
D)-----5---5-|              D)|-----3---3-|
A)-5/6-------|              A)|-6/5-------|
E)-----------|              E)|-----------|
Pa? que todo lo que este bueno, siempre este a punto de turrón

      Cm                             A#
 e)---------|                  e)----------------|
 B)---------|                  B)----------------|
 G)-----3---|                  G)----------------|
 D)---5---5-|                  D)-----8----------|
 A)-3-------|                  A)---8---8--------|
 E)---------|                  E)-6----------6-6-|
Si los dulces son de colores, Los recuerdos también lo son

      G#                         D#
e)---------|               e)---------|
B)---------|               B)---------|
G)---------|               G)-----3---|
D)-----6---|               D)---3---3-|
A)---6---6-|               A)---------|
E)-4-------|               E)-3-------|
En el cine las palomitas, el calor para los raspados

      Fm                         A#
 e)---------|               e)---------|
 B)---------|               B)---------|
 G)-----1---|               G)-----3---|
 D)---3---3-|               D)---3---3-|
 A)---------|               A)-1-------|
 E)-1-------|               E)---------|
Chocolate de la abuelita, para él frío del corazón

    Gm
Picosita la vida
      G#
Dulcecito él amor
     Fm
Sonrisitas de nieve
                A#
Que me regalen un rayito de sol

     Gm
Arrocito con leche
       G#
Pa? vivir
      Fm                           Gm
Para darle sabor a todo lo que de pronto
                            G#
Se queda triste, se queda solo
       A#
Uoh, uoh?

           D#
Quiero un mundo de caramelo
       A#
Donde todo sepa mejor
      Cm
Y esa niña que llevo dentro
        A#
Se me escape del corazón
         G#
Pa? que juegue con sus amigos
     D#
Y se ría con todo él mundo
       Fm
Que la risa de todos los niños
      A#
És la musica del amor

         D#
Hazme un mundo de caramelo
         A#
Llena él aire con algodón
         Cm
Que los dulces caigan del cielo
       A#
Las estrellas piñatas son
      G#
De repente las alegrías
        D#
Se me antojan de corazón
      Fm
Sí me como a besos la vida
     A#                   G#...
Chocolates los sueños son
e)-----------|    e)-----------|
B)-------3---|    B)-------4---|
G)---------3-|    G)-----------|
D)-----5-----|    D)-----6---6-|
A)---6-------|    A)---6-------|
E)-3---------|    E)-4---------|
Picosita la vida, dulcecito él amor

    e)-----------------------------1-1-|
    B)-------1-------1---------3---3-3-|
    G)---1-----1-1-----1---3-----3-3-3-|
    D)-3---3-------3-----3---3-----3-3-|
    A)-----------------------------1-1-|
    E)-----------------------------1-1-|
Sonrisitas de nieve, que me regalen un rayito de sol

e)-----------|     e)-----------|
B)-------3---|     B)-------4---|
G)---3-----3-|     G)-----------|
D)-5---5-----|     D)---6-----6-|
A)-----------|     A)-6---6-----|
E)-----------|     E)-----------|
Arrocito con leche, pa? vivir

e)-------------------------------------3-3-3--4-4-4-4-1111-|
B)-------1---------1---------3---------3-3-3--4-4-4-4-3333-|
G)---1-----1---1-----1---3-----3---3---3-3-3--5-5-5-5-3333-|
D)-3---3-----3---3-----5---5-----5---5-5-5-5--6-6-6-6-3333-|
A)-------------------------------------5-5-5--6-6-6-6-1111-|
E)-------------------------------------3-3-3--4-4-4-4-1111-|
Para darle sabor a todo lo que de pronto, se queda triste se queda solo

Uoh, uoh, uoh?

           D#
Quiero un mundo de caramelo
       A#
Donde todo sepa mejor
      Cm
Y esa niña que llevo dentro
        A#
Se me escape del corazón
         G#
Pa? que juegue con sus amigos
     D#
Y se ría con todo él mundo
       Fm
Que la risa de todos los niños
      A#
És la musica del amor

         D#
Hazme un mundo de caramelo
         A#
Llena él aire con algodón
         Cm
Que los dulces caigan del cielo
       A#
Las estrellas piñatas son
      G#
En el cine las palomitas
      D#
El calor para los raspados
     Fm
Chocolate de la abuelita
    A#                   D#-A#          Cm        A#
Para él frío del corazoooooooon uoh uoh uoh uuoh

G# D# Fm A#
Uuuuuuuuuh?

          D#
Quiero un mundo de caramelo
       A#
Donde todo sepa mejor
      Cm
Y esa niña que llevo dentro
        A#
Se me escape del corazón
         G#
Pa? que jueguen con sus amigos
     D#
Y se ría con todo él mundo
       Fm
Que la risa de todos los niños
      A#           D# A# Cm A#
Es la música del amoooor

      G#
En el cine las palomitas
      D#
El calor para los raspados
     Fm
Chocolate de la abuelita
    A#
Para él frío del corazón

    Gm            G#
Picosita la vida
      Fm       A#     D#
Dulcecito él amoooOOoor


By. SoNaC32
Calificar esta versión:
Aviso: Este fichero es trabajo propio de su transcriptor y representa su interpretación personal de la canción. El material contenido en esta página es para exclusivo uso privado, por lo que se prohibe su reproducción o retransmisión, así como su uso para fines comerciales.
Más versiones de Mundo De Caramelo, Danna Paola
Mundo De Caramelo
acordes
Mundo De Caramelo (ver 2)
acordes
Mundo De Caramelo (ver 3)
acordes
Mundo De Caramelo
tablatura
Descubre más canciones de Danna Paola