Mundo De Caramelo, Danna Paola (acordes) (ver 3)

Autor: nEbLiiCa | 18539 visualizaciones

?MUNDO DE CARAMELO?
INTRO:

e]-----------|-----------|-------------|------------|-----------]
B]-----------|-----------|-------------|------------|-----------]
G]-------3---|-------3---|-----3-------|------------|-----------]
D]-----5---5-|-----3---3-|---5---5-----|-------6----|-------8---]
A]-5/6-------|-6/5-------|-3-----------|-----6---6--|-----8-----]
E]-----------|-----------|-------------|-3/4--------|-4/6-------]


e]-----------|-----------|-------------|--------------]
B]-----------|-----------|-------------|--------------]
G]-------3---|-------3---|-----3-------|--------------]
D]-----5---5-|-----3---3-|---5---5-----|-----6--------]
A]-5/6-------|-6/5-------|-3-----------|---6----------]
E]-----------|-----------|-------------|-4-----6----6-]



          (D#)
Hazme un mundo de caramelo
          (A#)
Llena él aire con algodón
        (Cm)
Que los dulces caigan del cielo
        (A#)
Las estrellas piñatas son

      (G#)
De repente las alegrías
        (D#)
Se me antojan de corazón
       (Fm)
Sí me como a besos la vida
      (A#)
Chocolates los sueños son

e]-----------|              e]|-----------|
B]-----------|              (B)]|-----------|
G]-------3---|              (G)]|-------3---|
D]-----5---5-|              (D)]|-----3---3-|
A]-5/6-------|              A]|-6/5-------|
E]-----------|              (E)]|-----------|


Pa? que todo lo que este bueno, siempre este a punto de turrón


 e]---------|                  e]---------|
 (B)]---------|                  (B)]---------|
 (G)]-----3---|                  (G)]---------|
 (D)]---5---5-|                  (D)]-----8---|
 A]-3-------|                  A]---8---8-|
 (E)]---------|                  (E)]-6-------|

Si los dulces son de colores, Los recuerdos también lo son

e]---------|               e]---------|
B]---------|               (B)]---------|
G]---------|               (G)]---------|
D]-----6---|               (D)]-----3---|
A]---6---6-|               A]---6---6-|
E]-4-------|               (E)]-3-------|

En el cine las palomitas, el calor para los raspados


 e]---------|               e]---------|
 (B)]---------|               (B)]---------|
 (G)]---------|               (G)]-----3---|
 (D)]-----1---|               (D)]---3---3-|
 A]---3---1-|               A]-1-------|
 (E)]-1-------|               (E)]---------|

Chocolate de la abuelita, para él frío del corazón

    (D#)
Picosita la vida
      (G#)
Dulcecito él amor
     (Fm)
Sonrisitas de nieve
                (A#)
Que me regalen un rayito de Sol 

     (D#)
Arrocito con leche
       (G#)
Pa? vivir
      (Fm)                           (Gm)
Para darle sabor a todo lo que de pronto
                            (G#)
Se queda triste, se queda solo
       D#*
Uoh, uoh?


           (D#)
Quiero un mundo de caramelo
       (A#)
Donde todo sepa mejor
      (Cm)
Y esa niña que llevo dentro
        (A#)
Se me escape del corazón
         (G#)
Pa? que juegue con sus amigos
     (D#)
Y se ría con todo él mundo
       (Fm)
Que la risa de todos los niños
      (A#)
És la musica del amor


         (D#)
Hazme un mundo de caramelo
         (A#)
Llena él aire con algodón
         (Cm)
Que los dulces caigan del cielo
       (A#)
Las estrellas piñatas son


      (G#)
De repente las alegrías
        (D#)
Se me antojan de corazón
      (Fm)
Sí me como a besos la vida
     (A#)                   (G#)
Chocolates los sueños son

e]-----------|    e]-----------|
B]-------3---|    (B)]-------4---|
G]---------3-|    (G)]-----------|
D]-----5-----|    (D)]-----6---6-|
A]---6-------|    A]---6-------|
E]-3---------|    (E)]-4---------|

Picosita la vida, dulcecito él amor

    e]-----------------------------|
    (B)]-------1-------1---------3---|
    (G)]---1-----1-1-----1---3-----3-|
    (D)]-3---3-------3-----3---3-----|
    A]-----------------------------|
    (E)]-----------------------------|

Sonrisitas de nieve, que me regalen un rayito de Sol 

e]-------------|    e]-----------|
B]---------3---|    (B)]-------4---|
G]-----------3-|    (G)]-----------|
D]-----5-------|    (D)]---6-----6-|
A]---6---6-----|    A]-6---6-----|
E]-------------|    (E)]-----------|

Arrocito con leche, pa? vivir

e]-----------------------------------------|
B]-------1---------1---------3---------3---|
G]---1-----1---1-----1---3-----3---3-----3-|
D]-3---3-----3---3-----3---3-----3---3-----|
A]-----------------------------------------|
E]-----------------------------------------|     
    
                                                    (A#)
Para darle sabor a todo lo que de pronto, se queda triste,
          (G#)
se queda solo
           A#*
Uoh, uoh, uoh?

           (D#)
Quiero un mundo de caramelo
       (A#)
Donde todo sepa mejor
      (Cm)
Y esa niña que llevo dentro
        (A#)
Se me escape del corazón


         (G#)
Pa? que juegue con sus amigos
     (D#)
Y se ría con todo él mundo
       (Fm)
Que la risa de todos los niños
      (A#)
És la musica del amor


         (D#)
Hazme un mundo de caramelo
         (A#)
Llena él aire con algodón
         (Cm)
Que los dulces caigan del cielo
       (A#)
Las estrellas piñatas son

      (G#)
En el cine las palomitas
      (D#)
El calor para los raspados
     (Fm)
Chocolate de la abuelita
    (A#)                   (D#)-(A#)          (Cm)        (A#)
Para él frío del corazoooooooon uoh uoh uoh uuoh


(G#) (D#) (Fm) (A#)
Uuuuuuuuuh?

          (D#)
Quiero un mundo de caramelo
       (A#)
Donde todo sepa mejor
      (Cm)
Y esa niña que llevo dentro
        (A#)
Se me escape del corazón
         (G#)
Pa? que jueguen con sus amigos
     (D#)
Y se ría con todo él mundo
       (Fm)
Que la risa de todos los niños
      (A#)           (D#) (A#) (Cm) (A#)
Es la música del amoooor


      (G#)
En el cine las palomitas
      (D#)
El calor para los raspados
     (Fm)
Chocolate de la abuelita
    (A#)
Para él frío del corazón

    (D#)            (G#)
Picosita la vida
      (Fm)       (A#)     (D#)
Dulcecito él amoooOOoor


    (D#)   D#*    (A#)    A#*
e]--3--|--6--|--1--|--6--]
B]--4--|--8--|--3--|--6--]
G]--3--|--8--|--3--|--7--]
D]--5--|--8--|--3--|--8--]
A]--6--|--6--|--1--|--8--]
E]--3--|--6--|--1--|--6--]



By:*nEbLiiCa*

Comentarios del colaborador: aa ChiiDaaa

Calificar esta versión:
Aviso: Este fichero es trabajo propio de su transcriptor y representa su interpretación personal de la canción. El material contenido en esta página es para exclusivo uso privado, por lo que se prohibe su reproducción o retransmisión, así como su uso para fines comerciales.
Más versiones de Mundo De Caramelo, Danna Paola
Mundo De Caramelo
acordes
Mundo De Caramelo (ver 2)
acordes
Mundo De Caramelo (ver 3)
acordes
Mundo De Caramelo
tablatura
Descubre más canciones de Danna Paola