La Niña De Tus Ojos, Daniel Calveti (bajo) (ver 2)

Autor: Anónimo | 41354 visualizaciones

Intro

    C               G               Am               F
G|----------------------------------------------------------------12-|
D|----------------------------------------------------------12s14----|
A|--3------------------------------------------------8---------------|
E|------------------3---------------5--------------------------------|

    C               G               Am               F
G|-------------------------------------------------------------------|
D|--10—-12s14-12s10--------------------------------------------------|
A|------------------10------8-10-10s12-----------10--8---------------|
E|-------------------------------------------------------------------|

Verso I

    C               G               Am               F
G|-------------------------------------------------------------------|
D|----------------------------------------------9h10--------------9--|
A|------------------10------8-10-10s12---------------8------10-12----|
E|--8----------------------------------------------------------------|

    C               G               Am               F
G|----------------------------------------------------------10-----10|
D|--10-------------------------------------------------10s12--10-10--|
A|------------------10------8-10-10s12-----------10—-8---------------|
E|-------------------------------------------------------------------|


Verso II

    C               G               Am               F
G|-------------------------------------------------------------------|
D|-------------------------------------------------------------------|
A|-------------------------------------------------------------------|
E|--8--m--8---------3--m--3---------5--m--5------3---1--m--1---------|

    C               G               Am               F
G|-------------------------------------------------------------------|
D|-------------------------------------------------------------------|
A|-------------------------------------------------------------------|
E|-s8--m--8---------3--m--3-----8-7-5--m--5-s8-------1-11111---------|


Coro I

    C               G               Am               F
G|-------------------------------------------------------------------|
D|-------------------------------------------------------------------|
A|--3—3m-x-3---------------------------------------------------------|
E|------------------3—3m-x-3--1-3-3s5—5m-x-5----s875-1-1m-x-1--------|

    C               G               Am               F
G|-------------------------------------------------------------------|
D|-------------------------------------------------------------------|
A|--3-3m-x-3---------------------------------------------------------|
E|------------------3-3m-x-3--1-3-3s5-5m-x-5—---s875-1-1m-x-1--------|



Coro II
    C               G               Am               F
G|-------------------------------------------------------------------|
D|-------------------------------------------------------------------|
A|--3-----3-3m-------------------------------------------------------|
E|----3s5-----------3-3m-x-3---s875-5-5m-x-5-----3---1-1m-x-1--------|

    C               G               Am               F
G|--------------12---------------------------------------------------|
D|--10----12s14-----------9h10p9--------------------------s1515151515|
A|------------------10-----------10s12-----------10—-8---------------|
E|-------------------------------------------------------------------|

    C               G               Am               F
G|-------------------------------------------------------------------|
D|-------------------------------------------------------------------|
A|-------------------------------------------------------------------|
E|--8-8m-x-8-------s3-3m-x-3----1-3s5-5m-x-5----s875-1-1m-x-1--------|

    C               G               Am               F
G|-------------------------------------------------------------------|
D|-------------------------------------------------------------------|
A|-------------------------------------------------------------------|
E|--8-8m-x-8--------3-3m-x-3—--s875-5-5m-x-5-----3---1-1m-x-1--------|


Verso II (Bis)

    C               G               Am               F
G|-------------------------------------------------------------------|
D|--10--------------------9h10p9-------------------------------------|
A|------------------10-----------10s12----------10---8---------------|
E|-------------------------------------------------------------------|

    C               G               Am               F
G|-------------------------------------------------------------------|
D|--10--12s14-12s10-----------------------------------------------10-|
A|------------------10------8-10-10s12----------10---8---------------|
E|-------------------------------------------------------------------|


s = Slide

h = Hammer on

p = Pull of

m = Mute o apagar

x = Se toca la nota apagada o en mute

Espero que les sirva... Saludos y bendiciones
Calificar esta versión:
Aviso: Este fichero es trabajo propio de su transcriptor y representa su interpretación personal de la canción. El material contenido en esta página es para exclusivo uso privado, por lo que se prohibe su reproducción o retransmisión, así como su uso para fines comerciales.
Más versiones de La Niña De Tus Ojos, Daniel Calveti
La Niña De Tus Ojos
acordes
La Niña De Tus Ojos (ver 2)
acordes
La Niña De Tus Ojos
tablatura
La Niña De Tus Ojos
bajo
La Niña De Tus Ojos (ver 2)
bajo
La NiÑa De Tus Ojos
teclado
Descubre más canciones de Daniel Calveti