La Niña De Tus Ojos, Daniel Calveti (bajo)

Autor: Anónimo | 16655 visualizaciones



HOLA QUE TAL HERMANOS, PUES BUENO LES DEJO ESTE TAB PARA QE LE PRACTIQEN
ES MI PRIMERA TRANSCRIPCION Y SI HAY ERRORES LES PIDO ME DICULPE LO HAGO
CON MUCHO AMOR PARA EL SEÑOR QUE DIOS LOS BENDIGA Y UN SALUDO PARA
A LOS DE FUENTES DEL VALLE A JORGE (TECLADO) EL PIQUE (GUITARRA)ANA HAYDEE
ISRAEL TIO CHAPURRO EL(GUITARRA) EL MOMO (GUITARRA)
LOS WARRIORS DE JESUS DEL MANOLITO QDTB

(RIFF 1
E---------------------3-------------------------1------
A-------3--------------------------0--------------------
D-------------------------------------------------------
G-------------------------------------------------------
(RIFF 2)
E---------------------------------------------------------
A---------------------------7-----------------------------
D------------------------5------5-----7-----9----10----3--
G---5---7----9---7---5------------------------------------

(RIFF 1)
E ---------------------3------------------------1--
A-------3--------------------------0----------------  X2
D---------------------------------------------------
G--------------------------------------------------

EN LO QUE SIGUE PUEDEN HACER EL RIFF 2
(QUE EN MI OPINION ME GUSTA MAS) O EL RIFF 1
COMO LES GUSTE Y ACOMODE YA DESDE QE DICE
“TE AMO MAS QUE A MI VIDA SE TOCA EL RIFF 2)
HASTA EL FINAL

(RIFF 2)
E--------------------------------------------------------
A---------------------------7----------------------------
D-----------------------5------5-----7-----9----10----3--
G--5---7----9---7---5------------------------------------





Calificar esta versión:
Aviso: Este fichero es trabajo propio de su transcriptor y representa su interpretación personal de la canción. El material contenido en esta página es para exclusivo uso privado, por lo que se prohibe su reproducción o retransmisión, así como su uso para fines comerciales.
Más versiones de La Niña De Tus Ojos, Daniel Calveti
La Niña De Tus Ojos
acordes
La Niña De Tus Ojos (ver 2)
acordes
La Niña De Tus Ojos
tablatura
La Niña De Tus Ojos
bajo
La Niña De Tus Ojos (ver 2)
bajo
La NiÑa De Tus Ojos
teclado
Descubre más canciones de Daniel Calveti