El Lamento De La Selva, Damas Gratis (tablatura) (ver 2)

Autor: Anónimo | 42533 visualizaciones



hola bueno la otra tab q esta en la cuerda
no me gusta mucho ,esta esta mucho mejor
para mi gusto.. bueno les recomiendo que
enganchen rapido todas las partes asi
suena bien cualquier duda escribanme a
mi correo [email protected]
y un saludo para el diego q me pidio
q sauq el tema ya q el no puede jejee

1-------------------10-12-10-----13-10-13-10---------8--
2---------10-----10-------------------------------10----
3-----10------10-------------------------------10-------
4—12----------------------------------------------------
5-------------------------------------------------------
6-------------------------------------------------------

1---10-8-10-8----------------------------------------10--
2----------------------8---10-8-10-8---------------10----
3--------------------9------------------10-------10------
4-----------------10------------------------12-----------
5--------------------------------------------------------
6--------------------------------------------------------

1---------------------------------------------------------------
2---------------------------------------------------------------
3-------2-------2-2---------2-------2-2---------2------2-2------
4----3-------3-------3----3-------3------3----3------3------3---
5—5-------5-------------5-------5----------5-------5----------5-
6---------------------------------------------------------------

1-----------------------------------------------------
2-----------------------------------------------------
3-----2----2-2----0------------2-----2-2----0---------
4---3---3-------2------3----3-----3-------2--------3--
5-------------------5----------------------------5----
6-----------------------------------------------------

1-----------------------------------
2-----------------------------------
3--------2---2-----------0----------
4---3-3----3-----------2----2---3---   x3
5---------------3---3---------5-----
6-----------------------------------

1------------------------------------------------
2------------------------------------------------
3-----2----2-2----0----------2----2-2----0-------
4---3---3-------2------3---3---3------2-------3--
5-------------------5-----------------------5----
6------------------------------------------------

1------------------------------------
2------------------------------------
3-------2---2-----------0------------
4---3-3---3-----------2----2----3----    x3
5--------------3----3---------5------
6------------------------------------

En esta parte rasguear los acordes ósea
Pasa por todos los rem de la guitarra  escucha
Bien el tema y en el ultimo rasgueo ásete unos arpegios
En ese lugar

1--------1---------5------------10--------------13-------------17-
2------3---------6-----------10--------------15------------18-----
3----2---------7----------10-------------14------------19---------
4-----------------------------------------------------------------
5-----------------------------------------------------------------
6-----------------------------------------------------------------


1---------------13-13-10----10-----------------13-13-10-----10-----
2-----------10-----------13----10---------10-------------13-----10-
3-------10-----------------------------10--------------------------
4---12------------------------------12-----------------------------
5------------------------------------------------------------------
6------------------------------------------------------------------


1------------------------------------------------------------------
2-----------10---13-13-10-----10----------------10--13-13-10----10-
3-------10-----------------12-----10--------10---------------12----
4---10----------------------------------10-------------------------
5------------------------------------------------------------------
6------------------------------------------------------------------


1------------------------------------------------------
2-----------10----10---8-----9-----10-10-10-----10-----
3--10-10-10----10---------9-----8-----------10-----10--
4------------------------------------------------------
5------------------------------------------------------
6------------------------------------------------------


1----------------------------------------------
2---8----8-----10-10-10----10------8-----8-----
3------9----9-----------10-----10-----9-----9--
4----------------------------------------------
5----------------------------------------------
6----------------------------------------------


1-----------------------------------------5-------5-5--------
2--------------------------------------6-------6-------6-----
3---------2---------2-2---------------------7------------7---
4------3----------3-------3----------------------------------
5---5----------5--------------5------------------------------
6------------------------------------------------------------


1------5--------5-5-------------------5--------------
2---6--------6-------6--------------6----8-6-5-------
3---------7--------------7--------7-------------7----
4----------------------------------------------------
5----------------------------------------------------
6----------------------------------------------------





Calificar esta versión:
Aviso: Este fichero es trabajo propio de su transcriptor y representa su interpretación personal de la canción. El material contenido en esta página es para exclusivo uso privado, por lo que se prohibe su reproducción o retransmisión, así como su uso para fines comerciales.
Más versiones de El Lamento De La Selva, Damas Gratis
El Lamento De La Selva
tablatura
El Lamento De La Selva (ver 2)
tablatura
Descubre más canciones de Damas Gratis