El Lamento De La Selva, Damas Gratis (tablatura)

Autor: Anónimo | 47339 visualizaciones



1/------------------------------------------------------------------------|
2/------------------------------------------------------------------------|
3/------2-----2-2--------2-----2-2--------2-----2-2--------2-----2-2------|
4/--0-3---0-0-----3-0--3---0-0-----3-0--3---0-0-----3-0--3---0-0-----3-0--|
5/------------------------------------------------------------------------|
6/------------------------------------------------------------------------|


1/----------------------|------|------------------------------|
2/----------------------|------|------------------------------|
3/---2---2-2-0---2------|--2x--|------------------------------|
4/-3---3-------2---0-3--|------|-0-3-0-3--------0-5-3-0-3-----|3x
5/----------------------|------|---------3--0-3---------------|
6/----------------------|------|------------------------------|


1/----------------------|------|------------------------------|
2/----------------------|------|------------------------------|
3/---2---2-2-0---2------|--2x--|------------------------------|
4/-3---3-------2---0-3--|------|-0-3-0-3--------0-5-3-0-3-----|3x
5/----------------------|------|---------3--0-3---------------|
6/----------------------|------|------------------------------|

1/--1--|-------|--5--|-------|--10--|-------|--17--|-------|
2/--3--|-------|--6--|-------|--10--|-------|--18--|-------|
3/--2--|rasgueo|--7--|rasgueo|--10--|rasgueo|--19--|rasgueo|
5/-----|-------|-----|-------|------|-------|------|-------|
6/-----|-------|-----|-------|------|-------|------|-------|

1/-----17----17-|-------|
2/--------18----|se-----|
3/-19-----------|repite-|
4/--------------|varias-|
5/--------------|veces--|
6/--------------|-------|

1/-------10-10/13-13-10-8-8/10----|----|
2/----10-----------------------10-|----|
3/-10-----------------------------|----|
4/--------------------------------|-2x-|
5/--------------------------------|----|
6/--------------------------------|----|

1/--------------------------------|----|
2/-------10-10/13-13-10-8-8/10----|----|
3/----10-----------------------10-|----|
4/-10-----------------------------|----|
5/--------------------------------|-2x-|
6/--------------------------------|----|

1/----------|-------------------------------|----|-----------|
2/----10----|-10---10---8/10-8----8-8/10----|----|-10---10---|
3/-10----10-|----9----9--------10--------10-|----|----9----9-|
4/----------|-------------------------------|-3x-|-----------|
5/----------|-------------------------------|----|-----------|
6/----------|-------------------------------|----|-----------|

1/-----------------------5-----5-5-------5-----5-5--------5-3-------|
2/-------------------3-6---3-3-----6-3-6---3-3-----6-3----6---6-5-3-|
3/------2-----2-2-----------------------------------------7---------|
4/--0-3---0-0-----3-------------------------------------------------|
5/------------------------------------------------------------------|
6/------------------------------------------------------------------|





Calificar esta versión:
Aviso: Este fichero es trabajo propio de su transcriptor y representa su interpretación personal de la canción. El material contenido en esta página es para exclusivo uso privado, por lo que se prohibe su reproducción o retransmisión, así como su uso para fines comerciales.
Más versiones de El Lamento De La Selva, Damas Gratis
El Lamento De La Selva
tablatura
El Lamento De La Selva (ver 2)
tablatura
Descubre más canciones de Damas Gratis