Aerodynamic, Daft Punk (tablatura) (ver 2)

Autor: dany93 | 45799 visualizaciones

DAFT PUNK-AERODYNAMIC

RIFF PRINCIPAL:
e----------------------------------------|
B----------------------------------------|
G-7---------7---------------9------------|
D---9-x-7-9---9--x--7-x-7/9---9----------|
A----------------------------------------|
E----------------------------------------|
También se puede tocar de esta manera
e----------------------|
B----------------------|
G---7--------7---------|
D-----9---7h9--9--4-5--|
A----------------------|
E----------------------|

e----------------------|
B----------------------|
G---7--------7---------|
D-----9---7h9--9--7-9--|
A----------------------|
E----------------------|x24

Nota: para tocarla de manera mas sencilla se pueden omitir las ultimas dos notas: (D|4-5)(D|7-9)
Parte 1 (todas estas partes son tapings)
e|-----------------|
B|-----------------|
G|-----------------|
D|-----------------|
A|--17--9--14--9---|
E|-----------------|x4
Parte 2
e|-----------------|
B|-----------------|
G|-----------------|
D|-----------------|
A|--17--11--14--11-|
E|-----------------|x4
Parte 3
e|-----------------|
B|-----------------|
G|-----------------|
D|-17--9--14--9----|
A|-----------------|
E|-----------------|x4
Parte 4
e|-----------------|
B|-----------------|
G|-----------------|
D|--14--7--11--7---|
A|-----------------|
E|-----------------|x4
Parte 5
e|-----------------|
B|--15--7--12--7---|
G|-----------------|
D|-----------------|
A|-----------------|
E|-----------------|x4
Parte 6 
e|-----------------|
B|--15--9--12--9---|
G|-----------------|
D|-----------------|
A|-----------------|
E|-----------------|x4
Parte 7
e|--15--7--12--7---|
B|-----------------|
G|-----------------|
D|-----------------|
A|-----------------|
E|-----------------|x4
Parte 8
e|--12--5--9--5----|
B|-----------------|
G|-----------------|
D|-----------------|
A|-----------------|
E|-----------------|x4

Nota: al principio de los tappings se tocan las 8 partes solo una vez, luego se tocan las partes 5,6,7 y 8 cuatro veces (dos veces en solo, dos veces acompañado por la percusión o ritmo) se vuelven a tocar dos veces las primeras 4 partes, y se finaliza tocando 2 veces las ultimas 4 partes.
Calificar esta versión:
Aviso: Este fichero es trabajo propio de su transcriptor y representa su interpretación personal de la canción. El material contenido en esta página es para exclusivo uso privado, por lo que se prohibe su reproducción o retransmisión, así como su uso para fines comerciales.
Más versiones de Aerodynamic, Daft Punk
Aerodynamic
tablatura
Aerodynamic (ver 2)
tablatura
Descubre más canciones de Daft Punk