Aerodynamic, Daft Punk (tablatura)

Autor: xxblackxpinkxx | 44165 visualizaciones

"Aerodynamic", Daft Punk
=============================
+ALBUM: "Discovery!"

*Por: Sebas A. (Bs As, Argentina, 2008)
*MSN Mail: playing.the.angel_@hotmail.com

Está 100% bien...
=============================

RIFF PRINCIPAL:
e----------------------------------------
B----------------------------------------
G-7---------7---------------9----------------
D---9-x-7-9---9--x--7-x-7/9---9---------------------
A----------------------------------------
E----------------------------------------

SOLO:
e-10--7----
B---7---7--
G----------
D----------
A----------
E----------
x4

e-10--7---
B---9---9-
G---------
D---------
A--------
E---------
x4

e-15----12---
B----12----12
G------------
D------------
A------------
E------------
x4

e-12----9----
B----10---10-
G------------
D------------
A------------
E------------
x4

Calificar esta versión:
Aviso: Este fichero es trabajo propio de su transcriptor y representa su interpretación personal de la canción. El material contenido en esta página es para exclusivo uso privado, por lo que se prohibe su reproducción o retransmisión, así como su uso para fines comerciales.
Más versiones de Aerodynamic, Daft Punk
Aerodynamic
tablatura
Aerodynamic (ver 2)
tablatura
Descubre más canciones de Daft Punk