Rompe, Daddy Yankee (tablatura)

Autor: Santi_G | 28999 visualizaciones

   Nananananananananana...
    Am      Am/G    F      E
e ----------0-------1------0---------------------------------
B -----1----1-------1------0---------------------------------
G -----2----2-------2------1---------------------------------
D -----2-----------------------------------------------------
A --0--------------------------------------------------------
E --------3-------1------0-----------------------------------

    Nananananananananana...
    Am      Am/G    F      E
e ----------0-------1------0---------------------------------
B -----1----1-------1------0---------------------------------
G -----2----2-------2------1---------------------------------
D -----2-----------------------------------------------------
A --0--------------------------------------------------------
E --------3-------1------0-----------------------------------

    Nananananananananana...
    Am      Am/G    F      E
e ----------0-------1------0---------------------------------
B -----1----1-------1------0---------------------------------
G -----2----2-------2------1---------------------------------
D -----2-----------------------------------------------------
A --0--------------------------------------------------------
E --------3-------1------0-----------------------------------

  (You know!)
   D    E
e -2----0----------------------------------------------------
B -3----0----------------------------------------------------
G -2----1----------------------------------------------------
D -0---------------------------------------------------------
A -----------------------------------------------------------
E ------0----------------------------------------------------

  Los  Capos  están  Ready Las Mamis están Ready
     Am           Am/G        F        E
e -----------------0----------1--------0---------------------
B ----1------------1----------1--------0---------------------
G ----2------------2----------2--------1---------------------
D ----2------------------------------------------------------
A -0---------------------------------------------------------
E -----------3------------1--------0-------------------------

Y En La Calle Estamos Ready,Yeah Yeah estamos Ready
     Am           Am/G        F        E
e -----------------0----------1--------0---------------------
B ----1------------1----------1--------0---------------------
G ----2------------2----------2--------1---------------------
D ----2------------------------------------------------------
A -0---------------------------------------------------------
E -----------3------------1--------0-------------------------


Los Barrios están Ready, One, Two, Get Ready Come On
     Am           Am/G        F        E
e -----------------0----------1--------0---------------------
B ----1------------1----------1--------0---------------------
G ----2------------2----------2--------1---------------------
D ----2------------------------------------------------------
A -0---------------------------------------------------------
E -----------3------------1--------0-------------------------

Oh Oh Oh Oh!!
   D     E
e -2-----0----------------------------------------------------
B -3-----0----------------------------------------------------
G -2-----1----------------------------------------------------
D -0---------------------------------------------------------
A -----------------------------------------------------------
E -------0----------------------------------------------------

  Rompe, Rompe, Rompe, bien guilla'o
    Am     Am/G    F      E
e ---------0-------1------0---------------------------------
B ----1----1-------1------0---------------------------------
G ----2----2-------2------1---------------------------------
D ----2-----------------------------------------------------
A -0--------------------------------------------------------
E ------3-------1------0-----------------------------------

Rompe, Rompe, Rompe, Ese Cuerpo Ella Lo
    Am   Am/G      F      E
e ---------0-------1------0---------------------------------
B ----1----1-------1------0---------------------------------
G ----2----2-------2------1---------------------------------
D ----2-----------------------------------------------------
A -0--------------------------------------------------------
E ------3-------1------0-----------------------------------

Rompe, Rompe, Rompe, bien guilla'o
    Am     Am/G    F      E
e ---------0-------1------0---------------------------------
B ----1----1-------1------0---------------------------------
G ----2----2-------2------1---------------------------------
D ----2-----------------------------------------------------
A -0--------------------------------------------------------
E ------3-------1------0------------------------------------



Are You Ready!
e -2----0----------------------------------------------------
B -3----0----------------------------------------------------
G -2----1----------------------------------------------------
D -0---------------------------------------------------------
A -----------------------------------------------------------
E ------0----------------------------------------------------

Rompe, Rompe, Rompe, Break it down
      Am   Am/G    F      E
e ---------0-------1------0---------------------------------
B ----1----1-------1------0---------------------------------
G ----2----2-------2------1---------------------------------
D ----2-----------------------------------------------------
A -0--------------------------------------------------------
E ------3-------1------0------------------------------------

Rompe, Rompe, Rompe, The Way She Move ya Lo
    Am   Am/G    F      E
e ---------0-------1------0---------------------------------
B ----1----1-------1------0---------------------------------
G ----2----2-------2------1---------------------------------
D ----2-----------------------------------------------------
A -0--------------------------------------------------------
E ------3-------1------0------------------------------------

Rompe, Rompe, Rompe, Break it down
    Am   Am/G      F      E
e ---------0-------1------0---------------------------------
B ----1----1-------1------0---------------------------------
G ----2----2-------2------1---------------------------------
D ----2-----------------------------------------------------
A -0--------------------------------------------------------
E ------3-------1------0------------------------------------

Let's Go!!
e -2---0-----------------------------------------------------
B -3---0-----------------------------------------------------
G -2---1-----------------------------------------------------
D -0---------------------------------------------------------
A -----------------------------------------------------------
E -----0-----------------------------------------------------

My Boo No Se Limita A La Hora De Romper su
     Am           Am/G        F        E
e -----------------0----------1--------0---------------------
B ----1------------1----------1--------0---------------------
G ----2------------2----------2--------1---------------------
D ----2------------------------------------------------------
A -0---------------------------------------------------------
E -----------3------------1--------0-------------------------






 Bum Bum  Con Curvas Mas Calientes Que El "sun"
     Am           Am/G        F        E
e -----------------0----------1--------0---------------------
B ----1------------1----------1--------0---------------------
G ----2------------2----------2--------1---------------------
D ----2------------------------------------------------------
A -0---------------------------------------------------------
E -----------3------------1--------0-------------------------

Right True, Enseñame Si Tienes La Actitud, Mami
     Am           Am/G        F        E
e -----------------0----------1--------0---------------------
B ----1------------1----------1--------0---------------------
G ----2------------2----------2--------1---------------------
D ----2------------------------------------------------------
A -0---------------------------------------------------------
E -----------3------------1--------0-------------------------

Dale, Go, Dale Go,Dale Go Go!
e -2-------0-------------------------------------------
B -3-------0-------------------------------------------
G -2-------1-------------------------------------------
D -0-----------------------------------------------
A -------------------------------------------------
E ------0--------------------------------------------

Tiempo, Llego El Momento Baby De Perder El
      Am           Am/G        F        E
e -----------------0----------1--------0---------------------
B ----1------------1----------1--------0---------------------
G ----2------------2----------2--------1---------------------
D ----2------------------------------------------------------
A -0---------------------------------------------------------
E -----------3------------1--------0-------------------------

Control Trabajame Ese Cuerpo Mas Que Un Shot De
     Am           Am/G        F        E
e -----------------0----------1--------0---------------------
B ----1------------1----------1--------0---------------------
G ----2------------2----------2--------1---------------------
D ----2------------------------------------------------------
A -0---------------------------------------------------------
E -----------3------------1--------0-------------------------


  Winstrong Sube Ese Temperamento,
     Am       Am/G       F       E
e -------------0---------1-------0---------------------------
B ----1--------1---------1-------0---------------------------
G ----2--------2---------2-------1---------------------------
D ----2------------------------------------------------------
A -0---------------------------------------------------------
E -------3-----------1--------0------------------------------





Dame Movimiento Lento, Lento Ella Lo
e -2----------------0----------------------
B -3----------------0----------------------
G -2----------------1----------------------
D -0---------------------------------------
A -----------------------------------------
E ------------------0----------------------

Rompe, Rompe, Rompe, bien guilla'o
      Am   Am/G    F      E
e ---------0-------1------0---------------------------------
B ----1----1-------1------0---------------------------------
G ----2----2-------2------1---------------------------------
D ----2-----------------------------------------------------
A -0--------------------------------------------------------
E ------3-------1------0------------------------------------

Rompe, Rompe, Rompe, Ese Cuerpo Ella Lo
    Am   Am/G    F      E
e ---------0-------1------0---------------------------------
B ----1----1-------1------0---------------------------------
G ----2----2-------2------1---------------------------------
D ----2-----------------------------------------------------
A -0--------------------------------------------------------
E ------3-------1------0------------------------------------

Rompe, Rompe, Rompe, bien guilla'o
    Am   Am/G    F      E
e ---------0-------1------0---------------------------------
B ----1----1-------1------0---------------------------------
G ----2----2-------2------1---------------------------------
D ----2-----------------------------------------------------
A -0--------------------------------------------------------
E ------3-------1------0------------------------------------

Are You Ready!
e -2-------0--------------------------------------------
B -3-------0--------------------------------------------
G -2-------1--------------------------------------------
D -0----------------------------------------------------
A ------------------------------------------------------
E ---------0--------------------------------------------

Rompe, Rompe, Rompe, Break It Down
      Am   Am/G    F      E
e ---------0-------1------0---------------------------------
B ----1----1-------1------0---------------------------------
G ----2----2-------2------1---------------------------------
D ----2-----------------------------------------------------
A -0--------------------------------------------------------
E ------3-------1------0------------------------------------






Rompe, Rompe, Rompe, The Way She Move Ella Lo
      Am   Am/G    F      E
e ---------0-------1------0---------------------------------
B ----1----1-------1------0---------------------------------
G ----2----2-------2------1---------------------------------
D ----2-----------------------------------------------------
A -0--------------------------------------------------------
E ------3-------1------0------------------------------------


Rompe, Rompe, Rompe, Break It Down
      Am   Am/G    F      E
e ---------0-------1------0---------------------------------
B ----1----1-------1------0---------------------------------
G ----2----2-------2------1---------------------------------
D ----2-----------------------------------------------------
A -0--------------------------------------------------------
E ------3-------1------0------------------------------------


Go! Go! Go! Go!
e -2-------0--------------------------------------------
B -3-------0--------------------------------------------
G -2-------1--------------------------------------------
D -0----------------------------------------------------
A ------------------------------------------------------
E ---------0--------------------------------------------

Voy Chillin Tranquilo That's Right
      Am   Am/G    F      E
e ---------0-------1------0---------------------------------
B ----1----1-------1------0---------------------------------
G ----2----2-------2------1---------------------------------
D ----2-----------------------------------------------------
A -0--------------------------------------------------------
E ------3-------1------0------------------------------------

Buscando Una Gata Que cae
      Am   Am/G    F      E
e ---------0-------1------0---------------------------------
B ----1----1-------1------0---------------------------------
G ----2----2-------2------1---------------------------------
D ----2-----------------------------------------------------
A -0--------------------------------------------------------
E ------3-------1------0------------------------------------

No Esconda Todo Eso Que Trae Yo
      Am   Am/G    F      E
e ---------0-------1------0---------------------------------
B ----1----1-------1------0---------------------------------
G ----2----2-------2------1---------------------------------
D ----2-----------------------------------------------------
A -0--------------------------------------------------------
E ------3-------1------0------------------------------------



Baby Que es La Que Hay!
e -2-------0--------------------------------------------
B -3-------0--------------------------------------------
G -2-------1--------------------------------------------
D -0----------------------------------------------------
A ------------------------------------------------------
E ---------0--------------------------------------------

Voy Chillin Tranquilo That's Right
      Am   Am/G    F      E
e ---------0-------1------0---------------------------------
B ----1----1-------1------0---------------------------------
G ----2----2-------2------1---------------------------------
D ----2-----------------------------------------------------
A -0--------------------------------------------------------
E ------3-------1------0------------------------------------


Buscando Una Gata Que cae
      Am   Am/G    F      E
e ---------0-------1------0---------------------------------
B ----1----1-------1------0---------------------------------
G ----2----2-------2------1---------------------------------
D ----2-----------------------------------------------------
A -0--------------------------------------------------------
E ------3-------1------0------------------------------------


No Esconda Todo Eso Que Trae
      Am   Am/G    F      E
e ---------0-------1------0---------------------------------
B ----1----1-------1------0---------------------------------
G ----2----2-------2------1---------------------------------
D ----2-----------------------------------------------------
A -0--------------------------------------------------------
E ------3-------1------0------------------------------------


Que Pasa Socio Que es La Que Hay!
e -2-------0--------------------------------------------
B -3-------0--------------------------------------------
G -2-------1--------------------------------------------
D -0----------------------------------------------------
A ------------------------------------------------------
E ---------0--------------------------------------------


Pinche guey Pensates Que Esto Era Un Mamey
      Am      Am/G     F       E
e --------------0-------1------0---------------------
B ----1---------1-------1------0-------------------
G ----2---------2-------2------1------------------
D ----2-------------------------------------------
A -0----------------------------------------------
E ----------3-------1------0------------------------


No Voy A Dar Break Deja Ese Guille De Scarface
      Am      Am/G      F       E
e --------------0-------1-------0---------------------
B ----1---------1-------1-------0---------------------
G ----2---------2-------2-------1---------------------
D ----2-----------------------------------------------
A -0--------------------------------------------------
E ----------3-------1-------0-------------------------

Get Out My Way Usted No Vende Ni En Ebay
      Am      Am/G      F      E
e --------------0-------1------0---------------------
B ----1---------1-------1------0---------------------
G ----2---------2-------2------1---------------------
D ----2----------------------------------------------
A -0-------------------------------------------------
E ----------3-------1------0-------------------------

No Das Pa Na Conmigo Esta Frito Lay
      Am      Am/G      F      E
e --------------0-------1------0---------------------
B ----1---------1-------1------0---------------------
G ----2---------2-------2------1---------------------
D ----2----------------------------------------------
A -0-------------------------------------------------
E ----------3-------1------0-------------------------

Chekea El Swing Que Se Le Pega A Toa Las Nenas Mas Que
      Am          Am/G       F           E
e ------------------0--------1-----------0---------------
B ----1-------------1--------1-----------0---------------
G ----2-------------2--------2-----------1---------------
D ----2--------------------------------------------------
A -0-----------------------------------------------------
E ---------------3-------1-------0-----------------------

Un G-string Yo Soy La Pesadilla De Todo
      Am      Am/G      F      E
e --------------0-------1------0---------------------
B ----1---------1-------1------0---------------------
G ----2---------2-------2------1---------------------
D ----2----------------------------------------------
A -0-------------------------------------------------
E ----------3-------1------0-------------------------


Los Dream Team!!!!!! Ya Se Te Acabo El Magazine
      Am      Am/G      F      E
e --------------0-------1------0---------------------
B ----1---------1-------1------0---------------------
G ----2---------2-------2------1---------------------
D ----2----------------------------------------------
A -0-------------------------------------------------
E ----------3-------1------0-------------------------



Conmigo No Te La Guilles Pa De Listerin, Daddy Te!
e -2-----------------------0---------------------------
B -3-----------------------0---------------------------
G -2-----------------------1---------------------------
D -0---------------------------------------------------
A -----------------------------------------------------
E -------------------------0---------------------------

Rompe, Rompe, Rompe, bien guilla'o
      Am   Am/G    F      E
e ---------0-------1------0---------------------------------
B ----1----1-------1------0---------------------------------
G ----2----2-------2------1---------------------------------
D ----2-----------------------------------------------------
A -0--------------------------------------------------------
E ------3-------1------0------------------------------------

Rompe, Rompe, Rompe, Ese Cuerpo Ella Lo
    Am   Am/G      F      E
e ---------0-------1------0---------------------------------
B ----1----1-------1------0---------------------------------
G ----2----2-------2------1---------------------------------
D ----2-----------------------------------------------------
A -0--------------------------------------------------------
E ------3-------1------0------------------------------------

Rompe, Rompe, Rompe, bien guilla'o
    Am   Am/G    F      E
e ---------0-------1------0---------------------------------
B ----1----1-------1------0---------------------------------
G ----2----2-------2------1---------------------------------
D ----2-----------------------------------------------------
A -0--------------------------------------------------------
E ------3-------1------0------------------------------------

Are You Ready!
e -2-------0--------------------------------------------
B -3-------0--------------------------------------------
G -2-------1--------------------------------------------
D -0----------------------------------------------------
A ------------------------------------------------------
E ---------0--------------------------------------------


Rompe, Rompe, Rompe, Break It Down
      Am   Am/G    F      E
e ---------0-------1------0---------------------------------
B ----1----1-------1------0---------------------------------
G ----2----2-------2------1---------------------------------
D ----2-----------------------------------------------------
A -0--------------------------------------------------------
E ------3-------1------0------------------------------------







Rompe, Rompe, Rompe, The Way She Move Ella Lo
      Am   Am/G    F      E
e ---------0-------1------0---------------------------------
B ----1----1-------1------0---------------------------------
G ----2----2-------2------1---------------------------------
D ----2-----------------------------------------------------
A -0--------------------------------------------------------
E ------3-------1------0------------------------------------


Rompe, Rompe, Rompe, Break It Down
      Am   Am/G    F      E
e ---------0-------1------0---------------------------------
B ----1----1-------1------0---------------------------------
G ----2----2-------2------1---------------------------------
D ----2-----------------------------------------------------
A -0--------------------------------------------------------
E ------3-------1------0------------------------------------


Let's Go!!
e -2-----0--------------------------------------------
B -3-----0--------------------------------------------
G -2-----1--------------------------------------------
D -0--------------------------------------------------
A ----------------------------------------------------
E -------0--------------------------------------------

    Nananananananananana...
    Am      Am/G    F      E
e ----------0-------1------0---------------------------------
B -----1----1-------1------0---------------------------------
G -----2----2-------2------1---------------------------------
D -----2-----------------------------------------------------
A --0--------------------------------------------------------
E --------3-------1------0-----------------------------------

    Nananananananananana...
    Am      Am/G    F      E
e ----------0-------1------0---------------------------------
B -----1----1-------1------0---------------------------------
G -----2----2-------2------1---------------------------------
D -----2-----------------------------------------------------
A --0--------------------------------------------------------
E --------3-------1------0-----------------------------------

    Nananananananananana...
    Am      Am/G    F      E
e ----------0-------1------0---------------------------------
B -----1----1-------1------0---------------------------------
G -----2----2-------2------1---------------------------------
D -----2-----------------------------------------------------
A --0--------------------------------------------------------
E --------3-------1------0-----------------------------------

  (You know!)
   D    E
e -2----0----------------------------------------------------
B -3----0----------------------------------------------------
G -2----1----------------------------------------------------
D -0---------------------------------------------------------
A -----------------------------------------------------------
E ------0----------------------------------------------------




Oh, Oh En Directo Oh, Oh Daddy Yankee Yo
      Am      Am/G      F      E
e --------------0-------1------0---------------------
B ----1---------1-------1------0---------------------
G ----2---------2-------2------1---------------------
D ----2----------------------------------------------
A -0-------------------------------------------------
E ----------3-------1------0-------------------------


Con los jedis, Monserrate Y Dj Urba
      Am      Am/G      F      E
e --------------0-------1------0---------------------
B ----1---------1-------1------0---------------------
G ----2---------2-------2------1---------------------
D ----2----------------------------------------------
A -0-------------------------------------------------
E ----------3-------1------0-------------------------


Official, Its Official
    Am     Am/G   F     E
e ---------0------1-----0---------------------------------
B ----1----1------1-----0---------------------------------
G ----2----2------2-----1---------------------------------
D ----2-----------------------------------------------------
A -0--------------------------------------------------------
E -------3------1-----0-----------------------------------


Daddy Yankee Cartel Records, En Directo Who's this?
      Am        Am/G     F      E
e ---------------0-------1------0---------------------
B ----1----------1-------1------0---------------------
G ----2----------2-------2------1---------------------
D ----2----------------------------------------------
A -0-------------------------------------------------
E ----------3-------1------0-------------------------





Comentarios del colaborador: En esta cancion tienen que tener cuidado en acoplar los acordes a la voz ya que no es un cancion para guitarra, Pero por otra parte es una cancion facil, y pueden sustituir Am/G por un G si se les facilita.

Calificar esta versión:
Aviso: Este fichero es trabajo propio de su transcriptor y representa su interpretación personal de la canción. El material contenido en esta página es para exclusivo uso privado, por lo que se prohibe su reproducción o retransmisión, así como su uso para fines comerciales.
Más versiones de Rompe, Daddy Yankee
Rompe
acordes
Rompe (ver 2)
acordes
Rompe
tablatura
Descubre más canciones de Daddy Yankee