La Balada, Cuca (tablatura)

Autor: Zephiroth | 33630 visualizaciones

e--------------------------------------------
B--------0-----------------2---------------
G------2---2----------2---2--------------- X12     Dezpuez de x5 empieza a cantar y ezto va coreando detraz
D----3-------3------2-----2---------------
A—0-------------0-------0----------------
E--------------------------------------------

e------------------
B--------0--------
G------2---2-----                      C             Am                F              G
D----3-------3---          Oh lo vivi  Oh lo zoñe   Oh o vivi  Oh lo vivi         
A—0-------------
E------------------


e--------------------------------------------
B--------0-----------------2---------------
G------2---2----------2---2--------------- X12     Otra vez a la x5 empieza a cantar y zigue ezto…
D----3-------3------2-----2---------------
A—0-------------0-------0----------------
E--------------------------------------------


e------------------
B--------0--------
G------2---2-----                      C             Am                F              G
D----3-------3---          Oh lo vivi  Oh lo zoñe   Oh o viví  Oh lo viví         
A—0-------------
E------------------


D                  Bm                             G                                        A
        Por qe cada vez qe te alegaz me dejaz…            dezangrar!

D                  Bm                                   G                A                                       C Am
    Por qe cada vez qe te largaz me arrancaz me dezgarraz, no ya no hay maz  

                         F A
Ya no hay maz 

              C               Am           F             G                  C Am
Ya cortazte miz brazoz miz piernaz y ya no doy maz

                         F A
Ya no hay maz 

              C                Am            F              G
Ya mi carne ze encuentra contigo en otro lugar

e-----------------        e-------------------------
B-------2--------        B----------2-------------
G-----2---2-----X3   G-------2--2-------------
D---2-------2---        D-----2----2-------------
A-0-----------0-        A—0------0-------------
E-----------------       E--------------------------



e--------------------------------------------
B--------0-----------------2---------------
G------2---2----------2---2--------------- X12     Otra vez a la x5 empieza a cantar
D----3-------3------2-----2---------------
A—0-------------0-------0----------------
E--------------------------------------------


e------------------
B--------0--------
G------2---2-----                      C             Am                F              G
D----3-------3---          Oh lo vivi  Oh lo zoñe   Oh o viví  Oh lo viví         
A—0-------------
E------------------


C        Am        C        Am        C        Am        C        Am

D     Bm     D    Bm     G       G    A                    D     Bm     D    Bm     G       G    A


Zalvame!... no me dejez zangrar
e---------------------------------------------------------------
B-6-x-6-6-6---------------------------------------------------
G-7-x-7-7-7----7-x-7-7-7---6-x-6-6-6-x-6-x-6-6-6------
D-7-x-7-7-7----8-x-8-8-8---8-x-8-8-8-x-8-x-8-8-8------
A-5-x-5-5-5----8-x-8-8-8---8-x-8-8-8-x-8-x-8-8-8------
E-----------------6-x-6-6-6---6-x-6-6-6-x-8-x-8-8-8------


Ya no qeda maz…! No me dejez zangrar zangrar zangrar…
e---------------------------------------------------------------
B-6-x-6-6-6---------------------------------------------------
G-7-x-7-7-7----7-x-7-7-7---6-x-6-6-6-x-6-x-6-6-6------
D-7-x-7-7-7----8-x-8-8-8---8-x-8-8-8-x-8-x-8-8-8------
A-5-x-5-5-5----8-x-8-8-8---8-x-8-8-8-x-8-x-8-8-8------
E-----------------6-x-6-6-6---6-x-6-6-6-x-8-x-8-8-8------


D                  Bm                             G                                        A
        Por qe cada vez qe te alegaz me dejaz…            dezangrar!

D                  Bm                                   G                A                                       C Am
    Por qe cada vez qe te largaz me arrancaz me dezgarraz, no ya no hay maz  

                         F A
Ya no hay maz 

              C               Am           F             G                  C Am
Ya cortazte miz brazoz miz piernaz y ya no doy maz

                         F A
Ya no hay maz 

              C                Am            F              G
Ya mi carne ze encuentra contigo en otro lugar



e-----------------
B-------2--------
G-----2---2------X5 x?
D----2------2----
A--0----------0--
E-----------------

Comentarios del colaborador: Pz aqi lez dejo ezta rolilla he^^ no ezta muy facil ni tampoco dificil azi qe ezpero no ze trabn xp y cualqier duda aqi ando^^

Calificar esta versión:
Aviso: Este fichero es trabajo propio de su transcriptor y representa su interpretación personal de la canción. El material contenido en esta página es para exclusivo uso privado, por lo que se prohibe su reproducción o retransmisión, así como su uso para fines comerciales.
Más versiones de La Balada, Cuca
La Balada
acordes
La Balada
tablatura
La Balada (ver 2)
tablatura
Descubre más canciones de Cuca