Hallowed By The Name, Cradle Of Filth (acordes)

Autor: YAMI6 | 42608 visualizaciones

E--------------------------/-------------------------/
B-----12--10--8--7--8--5--7/----12--10--8--7--8--5--4/
G--------------------------/-------------------------/   x11    
D--------------------------/------------------------/
B--------------------------/-------------------------/
E-0------------------------/0-------------------------/

E--0-12-10-8-7-8-5-7-------/-0-12-10-8-7-8-5-4-------/
B--------------------------/-------------------------/
G--------------------------/-------------------------/  x4
D--------------------------/-------------------------/
B--------------------------/-------------------------/
E--------------------------/-------------------------/

E---------------------------------------/
B---------------------------------------/
G---------------------------------------/               x8
F--------------7-8-9----9-8-7-----------/
B--------7-8-9---------------9-8-7------/
E---7-8-9--------------------------9-8-7/
Calificar esta versión:
Aviso: Este fichero es trabajo propio de su transcriptor y representa su interpretación personal de la canción. El material contenido en esta página es para exclusivo uso privado, por lo que se prohibe su reproducción o retransmisión, así como su uso para fines comerciales.
Más versiones de Hallowed By The Name, Cradle Of Filth
Hallowed By The Name
acordes
Hallowed By The Name (ver 2)
acordes
Descubre más canciones de Cradle Of Filth