Nada Fue Un Error, Coti (tablatura)

Autor: Anónimo | 25658 visualizaciones

Bueno esta es la primer transcripcion que hago, es el pequeño solo
que hace en la mitad de la cancion y al final del tema, espero que
les guste. La saque de la version en vivo que hace con Paulina Rubio y
Julieta Venegas.


|--------7-------5-------3-------2-------0--------------------
|---7/8-----8/7-----7/5-----5/3-----3/2-----7--5--3--5--3--2--
|-------------------------------------------------------------
|-------------------------------------------------------------
|-------------------------------------------------------------
|-------------------------------------------------------------


|--------7-------5-------3-------2-------0--------------------
|---7/8-----8/7-----7/5-----5/3-----3/2-----------------------
|-------------------------------------------------------------
|-------------------------------------------------------------
|-------------------------------------------------------------
|-------------------------------------------------------------

Al final repite la segunda parte una sola vez.

Comentarios del colaborador: che...sigan entrando a www.tusacordes.com es una masa

Calificar esta versión:
Aviso: Este fichero es trabajo propio de su transcriptor y representa su interpretación personal de la canción. El material contenido en esta página es para exclusivo uso privado, por lo que se prohibe su reproducción o retransmisión, así como su uso para fines comerciales.
Más versiones de Nada Fue Un Error, Coti
Nada Fue Un Error
acordes
Nada Fue Un Error (ver 2)
acordes
Nada Fue Un Error (ver 3)
acordes
Nada Fue Un Error (ver 4)
acordes
Nada Fue Un Error
tablatura
Nada Fue Un Error (ver 2)
tablatura
Nada Fue Un Error
bajo
Nada Fue Un Error
armonica
Descubre más canciones de Coti