Nada Fue Un Error, Coti (bajo)

Autor: Anónimo | 21704 visualizaciones

hola esta es una buena cancion
y va dedicado a mi
para ti pioja
que la extraño mucho



G|----------------------------------------------------------|
D|--------------------------------------------------------|
A|-------------------------------5-5-5h5-5---------------|
E|--5-5-5-5----5------0-0-0--0--------------0-0 ---------|




G|----------------------------------------------------------|
D|--------------------------------------------------------|
A|-------------------------------5-5-5h5-5---------------|
E|--5-5-5-5----5------0-0-0--0--------------0-0 ---------|




G|----------------------------------------------------------|
D|--------------------------------------------------------|
A|-------------------------------5-5-5h5-5---------------|
E|--5-5-5-5----5------0-0-0--0--------------0-0 ---------|




G|----------------------------------------------------------|
D|--------------------------------------------------------|
A|-------------------------------5-5-5h5-5---------------|
E|--5-5-5-5----5------0-0-0--0--------------0-0 ---------|




G|----------------------------------------------------------|
D|--------------------------------------------------------|
A|-------------------------------5-5-5h5-5---------------|
E|--5-5-5-5----5------0-0-0--0--------------0-0 ---------|




G|----------------------------------------------------------|
D|--------------------------------------------------------|
A|-------------------------------5-5-5h5-5---------------|
E|--5-5-5-5----5------0-0-0--0--------------0-0 ---------|



eso es todo espero que la disfruten
les digo valoren a la persona que esta a
a su lado te amo pioja
desde el corazon de america
latina bolivia
Calificar esta versión:
Aviso: Este fichero es trabajo propio de su transcriptor y representa su interpretación personal de la canción. El material contenido en esta página es para exclusivo uso privado, por lo que se prohibe su reproducción o retransmisión, así como su uso para fines comerciales.
Más versiones de Nada Fue Un Error, Coti
Nada Fue Un Error
acordes
Nada Fue Un Error (ver 2)
acordes
Nada Fue Un Error (ver 3)
acordes
Nada Fue Un Error (ver 4)
acordes
Nada Fue Un Error
tablatura
Nada Fue Un Error (ver 2)
tablatura
Nada Fue Un Error
bajo
Nada Fue Un Error
armonica
Descubre más canciones de Coti