Trouble, Coldplay (bajo)

Autor: fherxo | 25363 visualizaciones

intro:     2x
G------------------|
D------------------|  (neste hammer-on vc toca só a primeira nota...)
A----5h6h7~--------|
E-3---------5h6h7~-|
     ^      ^
pausa, fica só a voz e piano...

intro 2x

tema:       2x  
G--------------|
D--------------|
A-----2~---0---|
E-3-0----1-----|

Refrão: (ohh if I...)

G-------------------------|-----------------------|--------------------------|--------------------|
D----------4----4-5~--5-7-|-----------4-----------|----------4-----4-5~--5-7-|---------4----------|
A--------4---7~-----------|---------4---7~-5p4h5--|--------4----7~-----------|-----------7~-------|
E-5~-5-7------------------|--5~-5-7---------------|-5~-5-7-------------------|--5~----------------|

(depois tem mais...)                                           ^ 
intro 2x
tema 2x
refrão 
itro 2x
pausa(piano e voz)

intro 4x
Calificar esta versión:
Aviso: Este fichero es trabajo propio de su transcriptor y representa su interpretación personal de la canción. El material contenido en esta página es para exclusivo uso privado, por lo que se prohibe su reproducción o retransmisión, así como su uso para fines comerciales.
Más versiones de Trouble, Coldplay
Trouble
acordes
Trouble (ver 2)
acordes
Trouble
tablatura
Trouble
bajo
Trouble
bateria
Descubre más canciones de Coldplay