Trouble, Coldplay (acordes)

Autor: Daniel L | 29232 visualizaciones

aambm7doeemem7ffsosmg
 Esta rola esta bien completa, para tocarla como debe de ser tienes que haber escuchado la canción. Todas las notas están bien excepto por dos que son así:
Bm7       Em7
e|-2-|      e|-0-|
B|-3-|      B|-0-|
G|-2-|      G|-0-|
D|-4-|      D|-0-|
A|-2-|      A|-2-|
E|-0-|      E|-0-|

Trouble – Coldplay

Intro:

e--2-3-2-----|-2-3-2-----|-2-3-2-----|-5-3-2-----|-2-3-2-----|-2-3-2-----|
B--------3---|-------3---|-------3---|-------3---|-------3---|-------3---|
G----------4-|---------4-|---------4-|---------4-|---------4-|---------4-|
D------------|-----------|-----------|-----------|-----------|-----------|
A------------|-----------|-----------|-----------|-----------|-----------|
E------------|-----------|-----------|-----------|-----------|-----------|

[repetir intro]

G    Em    Bm7
OH NO, I SEE
F           Am            G
A SPIDER WEB IS TANGLED UP WITH ME
Em         Bm7
AND I LOST, MY HEAD
F                 Am                G
AND THOUGHT OF ALL THE STUPID THINGS I’D SAID

[repetir intro]


G      Em       Bm7
OH NO WHAT’S THIS?
F           Am             G
A SPIDER WEB AND I’M CAUGHT IN THE MIDDLE
Em        Bm7
SO I TURN, TO RUN 
F                 Am                G
AND THOUGHT OF ALL THE STUPID THINGS I’D DONE, AND


CORO:
A                            E
AH I NEVER MEANT TO CAUSE YOU TROUBLE
A                   E
AND AH I NEVER MEANT TO Do YOU WRONG
A                            E 
AND AH WELL IF NEVER CAUSE YOU TROUBLE
A                       Em7
THEN OH NO I NEVER MEANT TO DO YOU HARM

[repetir intro]

G    Em    Bm7
OH NO, I SEE
F           Am          G
A SPIDER WEB AND IT’S ME IN THE MIDDLE
Em         Bm7
SO I TWIST, AND TURN
F            Am                  G
BUT HERE AM I IN MY LITTLE BUBBLE SINGING OUT

[repetir coro]


guitar solo:

e---10----5----10-----------|
B---12----7----12---12------|
G---12----7----12------12---|  [3x]
D---12----7----12-----------|    
A----0----0-----0-----------|
E----x----x-----x-----------|


Em    F#m    G    F#m    Em
AND THEY SPUN A WEB FOR ME
Em    F#m    G    F#m    Em
AND THEY SPUN A WEB FOR ME
Em    F#m    G    F#m    Em
AND THEY SPUN A WEB FOR ME

e---------------|
B---------------|
G---------------|
D--2--2--2--2---|
A---------------|
E---------------|

[repetir guitar solo]
 

Comentarios del colaborador: Cualquier duda hacen su comentario o escriben a Tauro_5920@hotmail.com. Y si votan por esta canción pueden pedir cualquiera por que yo tengo acordes de grupos como nirvana, guns’n roses, red hot chilli peppers, korn (unplugged), creed, Linkin park, The offspring y tambien en español.

Calificar esta versión:
Aviso: Este fichero es trabajo propio de su transcriptor y representa su interpretación personal de la canción. El material contenido en esta página es para exclusivo uso privado, por lo que se prohibe su reproducción o retransmisión, así como su uso para fines comerciales.
Más versiones de Trouble, Coldplay
Trouble
acordes
Trouble (ver 2)
acordes
Trouble
tablatura
Trouble
bajo
Trouble
bateria
Descubre más canciones de Coldplay