In My Place, Coldplay (tablatura)

Autor: ralphy | 44810 visualizaciones

12--12--------------|-12--12-------------------
--10--10-12-14-12-14|---10--10-12-14-12-14-----
--------------------|--------------------------
--------------------|--------------------------
--------------------|--------------------------
--------------------|--------------------------


12--12--------------|12--12--------------------
--10--10-12-14-12-14|--10--10-14-12-14-12-15---
--------------------|--------------------------
--------------------|--------------------------
--------------------|--------------------------
--------------------|--------------------------


12--12--------------|-12--12-------------------
--10--10-12-14-12-14|---10--10-12-14-12-14-----
--------------------|--------------------------
--------------------|--------------------------
--------------------|--------------------------
--------------------|--------------------------


12--12--------------|-12--12-------------------
--10--10-12-14-12-14|---10--14-12-14-12-14-10----
--------------------|--------------------------
--------------------|--------------------------
--------------------|--------------------------
--------------------|--------------------------

Comentarios del colaborador: ralph.g.k@hotmail.com

Calificar esta versión:
Aviso: Este fichero es trabajo propio de su transcriptor y representa su interpretación personal de la canción. El material contenido en esta página es para exclusivo uso privado, por lo que se prohibe su reproducción o retransmisión, así como su uso para fines comerciales.
Más versiones de In My Place, Coldplay
In My Place
acordes
In My Place
tablatura
In My Place (ver 2)
tablatura
In My Place
bajo
In My Place
bateria
In My Place
armonica
In My Place
video guitarra
Descubre más canciones de Coldplay