In My Place, Coldplay (acordes)

Autor: cozijopi | 26109 visualizaciones

aa7amcsosmdefsosfsosm
 INTRO: A, F#m, C#m, E
solo:

e|-12--12-----9----9--|        3X
B|---------12---12----|
G|---9----------------|

e|-12--12--7/9-7-9-7-9--|      1X
B|----------------------|
G|---9------------------|

e|-12--12-----9----9--|        3X
B|---------12---12----|
G|---9----------------|

e|-12--12--7/9-7-9-7-9-----|   1X
B|----------------------10-|
G|---9---------------------|

###Verso 2 del solo inicial###

e|-12---12------9----9-|       
B|-----------12---12---|       3x
G|----9----9-----------|      

e|-12---12----------9----9-|   
B|---------12-14-12---12---|   1x 
G|----9--------------------|

e|-12---12------9----9-|       
B|-----------12---12---|       3x
G|----9----9-----------|

e|-12---12----------9----9---| 
B|---------12-14-12---12---10| 1x 
G|----9----------------------|

A     F#m         C#m
In my place, in my place
 E                            A 
Were lines that I couldn't change
      F#m      C#m       E A 
I was lost, oh yeah 
  F#m               C#m
I was lost, I was lost
    E                              A 
Crossed lines I shouldn't have crossed
      F#m     C#m        E
I was lost, oh yeah 
D          A            A7+       D
Yeah, how long must you wait for it ?                      
           A           A7+        D
Yeah, how long must you pay for him ?
           A             A7+      D      E
Yeah, how long must you wait for him? and for it?

SE REPITE EL INTRO [A, F#m, C#m, E]

A      F#m          C#m
I was scared, I was scared
  E                 A 
Tired and underprepared
      F#m       C#m   E
But I wait for it 
A      F#m       C#m
If you go, if you go
           E              A 
Leave me down here on my own
       F#m      C#m     E
Well I wait for you 

D          A            A7+        D
Yeah, how long must you wait for it?               
           A             A7+        D
Yeah, how long must you pay for him?                                              
           A             A7+       D        E
Yeah, how long must you wait for him? and for it?

 [Am F# C#m E ]

          A       F#m      C#m
Singing please, please, please
     E                 A 
Come back and sing to me
   F#m        C#m         
And to me,     me         
      E             A      F#m     C#m
Come on and sing it out, and now, and now
      E             A      F#m      C#m
Come on and sing it out, and now,and now
     E
Come on and sing it


A     F#m         C#m
In my place, in my place
      E                     A 
Were lines that I couldn't change
        F#m      C#m     A 
I was lost, oh yeah, oh yeah
 
Calificar esta versión:
Aviso: Este fichero es trabajo propio de su transcriptor y representa su interpretación personal de la canción. El material contenido en esta página es para exclusivo uso privado, por lo que se prohibe su reproducción o retransmisión, así como su uso para fines comerciales.
Más versiones de In My Place, Coldplay
In My Place
acordes
In My Place
tablatura
In My Place (ver 2)
tablatura
In My Place
bajo
In My Place
bateria
In My Place
armonica
In My Place
video guitarra
Descubre más canciones de Coldplay