El Colegio, Codigo Rojo (tablatura)

Autor: solxpunk | 30915 visualizaciones



INTRO GUITARRA 1:
e|-------------------------------|
B|-------------------------------|
G|-11--9---------------------9---|
D|--------12--11--12--7--12------|  x1
A|-------------------------------|
E|-------------------------------|

INTRO GUITARRA 2:
e|-------------------------------|
B|-------------------------------|
G|--7----------------------------|
D|--7--7---9—--4—--5--7—--9—-7---|  x1
A|--5--7---9—--4—--5—-7—--9—-7---|
E|-----5—--7—--2-—-3—-5---7—-5---|

VERSO: (Hoy he vuelto a llegar...)
e|-----------------------------------------------|
B|-----------------------------------------------|
G|-77777-----------------------------------------|
D|-77777-77777-99999-44444-5555555555-7777777777-|
A|-55555-77777-99999-44444-5555555555-7777777777-|  x2
E|-------55555-77777-22222-3333333333-5555555555-|

PRE-CORO: (Y cada noche pensare...)
e|------------------------------------------------|
B|------------------------------------------------|
G|-------------------------7777777777-------------|
D|-5555555555--7777777777--7777777777--9999999999-|
A|-5555555555--7777777777--5555555555—-9999999999-|  x1
E|-3333333333--5555555555--------------7777777777-|

CORO: (Han sido 13 años en priison...)
e|----------------------------------------------------------|
B|----------------------------------------------------------|
G|-----------------------7-7777-----------------------------|
D|-5555555555-7777777777-7-7777-9999999999-55555555-7777777-|
A|-5555555555-7777777777-5-5555-9999999999-55555555-7777777-|
E|-3333333333-5555555555--------7777777777-33333333-5555555-|

SOLO GUITARRA 1
e|--------------------------------------------|
B|-7-8-7-10-8-7-8-----12-10-8-10-8-7-8-7------|
G|--------------------------------------------|
D|--------------------------------------------|
A|--------------------------------------------|
E|--------------------------------------------|

e|--------------------------------------------|
B|-12-12-12---12-10-12-14-14----15-14-12-10---|
G|--------------------------------------------|
D|--------------------------------------------|
A|--------------------------------------------|
E|--------------------------------------------|
e|--------------------------------------------|
B|--7-7-7-7-----------------------------------|
G|----------7-7-7-7--6-6-6-6-7-7-7-7----------|
D|--------------------------------------------|
A|--------------------------------------------|
E|--------------------------------------------|

e|--------------------------------------------|
B|--7-7-7-7-7-7-7-7--8-8-8-8-8-8-8-8----------|
G|-----------------------------------6--------|
D|--------------------------------------------|
A|--------------------------------------------|
E|--------------------------------------------|

SOLO GUITARRA 2:
e|-----------------------------------------------|
B|-----------------------------------------------|
G|-77777-----------------------------------------|
D|-77777-77777-99999-44444-5555555555-7777777777-|
A|-55555-77777-99999-44444-5555555555-7777777777-|  x2
E|-------55555-77777-22222-3333333333-5555555555-|

PRE-CORO: (Y cada noche tratare...)
e|------------------------------------------------|
B|------------------------------------------------|
G|-------------------------7777777777-------------|
D|-5555555555--7777777777--7777777777--9999999999-|
A|-5555555555--7777777777--5555555555—-9999999999-|  x1
E|-3333333333--5555555555--------------7777777777-|

CORO: (Han sido 13 años en priison...)
e|----------------------------------------------------------|
B|----------------------------------------------------------|
G|-----------------------7-7777-----------------------------|
D|-5555555555-7777777777-7-7777-9999999999-55555555-7777777-|
A|-5555555555-7777777777-5-5555-9999999999-55555555-7777777-|
E|-3333333333-5555555555--------7777777777-33333333-5555555-|





Calificar esta versión:
Aviso: Este fichero es trabajo propio de su transcriptor y representa su interpretación personal de la canción. El material contenido en esta página es para exclusivo uso privado, por lo que se prohibe su reproducción o retransmisión, así como su uso para fines comerciales.
Más versiones de El Colegio, Codigo Rojo
El Colegio
acordes
El Colegio
tablatura
Descubre más canciones de Codigo Rojo