El Colegio, Codigo Rojo (acordes)

Autor: solxpunk | 15610 visualizaciones

abdfsosg


 intro

D A B F# G A  x2


D                   A  
Hoy he vuelto a llegar
B         F#        
al mismo lugar,
G                 A 
al mismo maldito engaño.
Es la cárcel central
no es un buen lugar
es la prisión del Estado.

G             A  
y cada noche pensaré
D                    B
en una estrategia de salida
han sido 13 años en prisión
no tengo razón,
para quedar culpable ante un rector.

[solo]

e|--------------------------------------------|
B|-7-8-7-10-8-7-8-----12-10-8-10-8-7-8-7------|
G|--------------------------------------------|
D|--------------------------------------------|
A|--------------------------------------------|
E|--------------------------------------------|

e|--------------------------------------------|
B|-12-12-12---12-10-12-14-14----15-14-12-10---|
G|--------------------------------------------|
D|--------------------------------------------|
A|--------------------------------------------|
E|--------------------------------------------|
e|--------------------------------------------|
B|--7-7-7-7-----------------------------------|
G|----------7-7-7-7--6-6-6-6-7-7-7-7----------|
D|--------------------------------------------|
A|--------------------------------------------|
E|--------------------------------------------|

e|--------------------------------------------|
B|--7-7-7-7-7-7-7-7--8-8-8-8-8-8-8-8----------|
G|-----------------------------------6--------|
D|--------------------------------------------|
A|--------------------------------------------|
E|--------------------------------------------|

G A D B G A 
y cada noche trataré
de olvidar lo que ha pasado
han sido 13 años en prisión
no tengo razón,
para quedar culpable ante un rector 





Calificar esta versión:
Aviso: Este fichero es trabajo propio de su transcriptor y representa su interpretación personal de la canción. El material contenido en esta página es para exclusivo uso privado, por lo que se prohibe su reproducción o retransmisión, así como su uso para fines comerciales.
Más versiones de El Colegio, Codigo Rojo
El Colegio
acordes
El Colegio
tablatura
Descubre más canciones de Codigo Rojo