Eres Fiel, Coalo Zamorano (bajo) (ver 2)

Autor: Anónimo | 18123 visualizaciones

bueno pues ahi estan mas o menos como los pude sacar de verdad me
esforce asi que 
si no estan bien pues no se la bañen Dios les bendiga
intro:
yo uso la cuerda de si si su bajo es de 4 cuerdas pues nomas
no le presten atencion
y toquenlo en cuerda de la
B---3-3-----------3-3------------3-3----------------------22-
E--------5-5s7-5-------55-5s7-5-------55-5s7-5--333-22-00----
A------------------------------------------------------------
D------------------------------------------------------------
G------------------------------------------------------------

estrofa:el adorno al final del intro es para caer al D
B---3-3-----------3-3------------3-3------------3-3------
E--------------------------------------------------------
A------------------------------------3s5------------3s5--   x 2
D--------------------------------------------------------
G--------------------------------------------------------

precoro:
B---------------------3----------------------------
E---3-3--------3--3-3--0-1-2-3-3--------3----------
A--------5---5--------------------5---5---11--33---
D----------5------------------------5--------------
G--------------------------------------------------

coro: atencion que aqui son adornos bueno el que hace en D no lo he sacado
    D               A               C               G
B-------3-3--3-3--------------------------------------------------
E-----------------2-5--2-2-5--2-5-3----00-11-2-3-3-3-3--------3---
A---5-------------------------------3------------------5----5---2-
D-------------------------------------------------------5-4-------
G-----------------------------------------------------------------

B-------3-3--3-3-----------------------------------------------------
E-----------------2-5--2-2-5--2-5-3-----0-0-1-1-2-2-3-3--------------
A---5-------------------------------3-3--------------------------5s7-
D--------------------------------------------------------5s7-5s4-----
G--------------------------------------------------------------------

B-------3-3--3-3--------------------------------------------------
E-----------------2-5--2-2-5--2-5-3----00-11-2-3-3-3-3--------3---
A---5-------------------------------3------------------5----5---2-
D-------------------------------------------------------5-4-------
G-----------------------------------------------------------------
    D/F#       Am7                 Bb      C
B-------------------------------------------------
E---2-----2222--5------------------6-6-6-6--------
A-----------------5s7----------8-5---------33333--
D------2--------------7-10-8-7--------------------
G-------------------------------------------------

inter
B--------------------------------------------------------
E-----------------5-------------------------------------- creo que como
A---3s5-5-5--3-3----3s5-5------------------------8-7-3-5- tres veces
D------------------------------------8-8-7-7-7-5--------- y termina
G--------------------------5s7-7-5-5--------------------- CCCCC BBBBB AA Bb

el adorno de la segunda estrofa que va en vez del slide lo hago asi:
B----------------------------------------------------------5-0-1-2-3-3-
E------------------------------------5-----------------5-3-------------
A----------5-----------5---5-3-3h5-3---5-3-2-3s5-3-2-3-----------------
D----55--3---3--3h5--3---3---------------------------------------------
G----------------------------------------------------------------------

puente
B----------------------------------------
E----------------------------------------la primera vez
A---5-5--8-8--9-----5-5--3-3--2---1-1-0--no hace el Bb y A
D----------------------------------------
G----------------------------------------

adorno para entrar al precoro despues del puente
B---------------------------------
E----------------------------10s3-
A---------------------------------
D---7s10--12-----------12-11------
G------------11h12--11------------

final:
ese si que no me lo se pero pues planchenlo pos que
    D/F#          Am7
B------------------------------------
E---2-----2-2222--5------------------
A-------------------5s7----------8-5-
D------2----------------7-10-8-7-----
G------------------------------------
BbC Bb/D C/E Gm7 D
B----------------------------------------------------3-
E-6-6-6-6----------------------------------------------
A---------3-3-3-3-5-5-5-5-7-7-7-7-10-10-10-10-33333----
D------------------------------------------------------
G------------------------------------------------------

 bueno si lees esto y lo bajas para tocar chido
y que Dios te bendiga
Calificar esta versión:
Aviso: Este fichero es trabajo propio de su transcriptor y representa su interpretación personal de la canción. El material contenido en esta página es para exclusivo uso privado, por lo que se prohibe su reproducción o retransmisión, así como su uso para fines comerciales.
Más versiones de Eres Fiel, Coalo Zamorano
Eres Fiel
acordes
Eres Fiel (ver 2)
acordes
Eres Fiel (ver 3)
acordes
Eres Fiel
bajo
Eres Fiel (ver 2)
bajo
Descubre más canciones de Coalo Zamorano