Eres Fiel, Coalo Zamorano (bajo)

Autor: Anónimo | 41826 visualizaciones

Hola ahora voy con esta cancion bien origial
En el intro te quedas en D

Estrofa
B----------------------------------------------|
E-------------------3--7--10--------3--7--10---|
A--5-5---5-5---5-5-------------5-5-------------|
D----------------------------------------------|
G----------------------------------------------|
2 veces

Gente de toda...
B--------------------------|
E--3-------5---------------|
A-----5---------1-1---3----|
D--------------------------|
G--------------------------|

coro:
B----------------------------------------------|
E--------------------5--5-5------------3--3-3--|
A-5-s-17---5---5-5------------3--3-3-----------|
D----------------------------------------------|
G----------------------------------------------|

3 veces, en la 4 vez va:

B------------------------------------------|
E--2---2--2----5--5-5----------------------|
A-----------------------3--3-3------3-3-3--|
D------------------------------------------|
G------------------------------------------|

Estrofa:
B--------------------------------------------------------|
E-------------------------------------------5-5--4-4-3---|
A--5-5---5-5---5---------------5-5--4-4-3----------------|
D------------------5-5--4-4-3----------------------------|
G--------------------------------------------------------|

2ª vez:
B---------------------------------------------|
E---------------------------------------------|
A--5-5---5-5---5-5----------------------------|
D-------------------5--------5-------5--------|
G---------------------7--------7-------7------|

-Gente de toda...
-Coro

 Aquí esta el adorno del intermedio:

B------------------------------------|
E------------------------------------|
A--5-5---------------5-5---3-3--2-2--|
D--------3--3--5---------------------|
G -----------------------------------|
8 veces

Luego se quedan sola las voces
y la cuarta vez va esto:

B-------------------------------------------|
E-------------------------------------------|
A--10--12-----------------------12--10--8---|
D----------12--------------12---------------|
G-----------------10-s-12-------------------|

Gente de toda...

Coro y final

Espero que les sirva para sacarla en tu Iglesia y si no la entienden o
no puedes leerla mandame un mail.

¡B E N D I C I O N E S!
Calificar esta versión:
Aviso: Este fichero es trabajo propio de su transcriptor y representa su interpretación personal de la canción. El material contenido en esta página es para exclusivo uso privado, por lo que se prohibe su reproducción o retransmisión, así como su uso para fines comerciales.
Más versiones de Eres Fiel, Coalo Zamorano
Eres Fiel
acordes
Eres Fiel (ver 2)
acordes
Eres Fiel (ver 3)
acordes
Eres Fiel
bajo
Eres Fiel (ver 2)
bajo
Descubre más canciones de Coalo Zamorano