Huellas, Chacalon Y La Nueva Crema (bajo)

Autor: Mike00elrey | 29 visualizaciones



E|---5--5--|---------|--7--7-|-------------|
A|--5--5-5-|--7---55-|-7--7--|--7----------|
D|---------|-7--7----|-------|-7--7-5-8-7--|
G|---------|---------|-------|-------------|

E|---5--5-|---------|--7--7-|-----|
A|--5--5--|--7---55-|-7--7--|--7--|
D|--------|-7--7----|-------|-7---|
G|--------|---------|-------|-----|

Traigo en el alma
E|-----------|--7--7--7--7-|-----|
A|---7--7--8-|-7--7--7--7--|--7--|
D|--7--7--7--|-------------|-7---|
G|-----------|-------------|-----|

y ahora tengo
E|------|--5--|----|--3--|-----|--5---|--7--|-------------|
A|---7--|-5-5-|--5-|-3-3-|--3--|-5-56-|-7-7-|-------------|
D|--7-7-|-----|-5--|-----|-3-3-|------|-----|-7----9--97--|
G|------|-----|----|-----|-----|------|-----|----97-97----|

Que no quede huella
E|-----|--5---|-|--------|--5--5--|-------|
A|--7--|-5--5-|-|--7--7--|-5--5-5-|--7----|x2
D|---7-|------|-|-7--7-7-|--------|-7--7--|
G|-----|------|-|--------|--------|-------|

que no quede huella de ti
E|-----7--7--|--------|--7--7--|-----|
A|--577--7-7-|--7--55-|-7--7-7-|--7--|
D|-----------|-7--7---|--------|-7---|
G|-----------|--------|--------|-----|

E|---5--5--|----------|--7--7-|-------------|
A|--5--5-5-|----7--55-|-7--7--|--7----------|
D|---------|-7---7----|-------|-7--7-5-8-7--|
G|---------|---9------|-------|-------------|

E|---5--5-|---------|--7--7-|-----|
A|--5--5--|--7---55-|-7--7--|--7--|
D|--------|-7--7----|-------|-7---|
G|--------|---------|-------|-----|

Traigo en el alma
E|-----------|--7--7--7--7--|-----|
A|---7--7--8-|-7--7--7--7-7-|--7--|
D|--7--7--7--|--------------|-7---|
G|-----------|--------------|-----|

y ahora tengo
E|------|--5--|-----|--3--|-----|--5---|--7--|-----|
A|---7--|-5-5-|--5--|-3-3-|--3--|-5-56-|-7-7-|--7--|
D|--7-7-|-----|-5-5-|-----|-3-3-|------|-----|-7---|
G|------|-----|-----|-----|-----|------|-----|-----|

Que no quede huella
E|-----|--5---|-|--------|--5--5--|-----|
A|---7-|-5--5-|-|--7--7--|-5--5-5-|--7--|x2
D|--7--|------|-|-7--7-7-|--------|-7---|
G|-----|------|-|--------|--------|-----|

que no quede
E|-----|--5----|
A|---7-|-5--5--|
D|--7--|-------|
G|-----|-------|





Calificar esta versión:
Aviso: Este fichero es trabajo propio de su transcriptor y representa su interpretación personal de la canción. El material contenido en esta página es para exclusivo uso privado, por lo que se prohibe su reproducción o retransmisión, así como su uso para fines comerciales.
Más versiones de Huellas, Chacalon Y La Nueva Crema
Huellas
bajo
Huellas
bajo
Descubre más canciones de Chacalon Y La Nueva Crema