Luisa, Chabelos (tablatura)

Autor: sjfc | 38067 visualizaciones

INTRO:
e)-------------------------------------------
B)-------------------------------------------
G)-------------------------------------------
D)-------------------------------------------
A)-------------------------------------------
E)-8--888-5--555-1--111-3--333---------------

esta luisa va para ti...

uhhhhhhhhhhhhhhhhhhhh
do-lam-fa-solm     


do               lam
luisaaaaaaaaaaaa donde estaaaaaaas
fa     solm
hooooy te ire a buskaaaaaaaar
do            lam
luisaaaaaaaaa no puedo maaaaaaas
fa      solm
daaaame otra oportunidaaaaaaaaaad

PARA AMRTE

do                         lam
hace tanto tiempo ke no te he vuelto a encontrar
fa
no se ke es de tu vida
solm
no se donde estaras
do
tal vez ya te habras muerto
      lam
o aun sigues por ahi
fa                   solm
parada en esa eskina donde te conoci
fa       sol       fa     solm
ohhhhhhh ohhhhhhhh ohhh o hhhhhhhhh

do                         lam
tu fuiste la primera en mi vida y fue asi
fa
y ahora estoy perdido
solm
no se vivir sin ti
do                   lam
kiero recogerte y tenerte una vez mas
fa                 solm
oh luisa por favor no me vayas a fallar
fa     solm  fa solm
ohhhhh ohhhh o  ohhhhhh

luisaaaaaaaaaaa no puedo maaaaaaas hooooooy te ire abuskaaaaaaar

esta parte va con lo de arriba:
e)-------------------------------------------
B)-------------------------------------------
G)-------------------------------------------
D)-------------------------------------------
A)-------------------------------------------
E)-8-888888-5-555555-1-111111-3--3-----------

luisaaaaaaa donde estaaaaaaas daaaaaaaame otra oportuniiidaaaaaad 

esta parte va con lo de arriba:
e)-------------------------------------------
B)-------------------------------------------
G)-------------------------------------------
D)-------------------------------------------
A)-------------------------------------------
E)-8-888888-5-555555-1-111111-3--3-----------


wooohhhhh woooohhhh:
e)-------------------------------------------
B)-------------------------------------------
G)-------------------------------------------     (x2)
D)-------------------------------------------
A)-------------------------------------------
E)1-111111-3--3------------------------------

oye luisa no puedo mas
esta noche saldré, te iré a buscar 
oye luisa necesito tu calor
por favor no me dejes sin tu amor
oye luisa la vida no es igual
se ke entre las kalles te voy a encontra
tanto tanto tiempo yno te dejo de kerer
luisa yo te amo aunke no seas mujer

esto va con lo de arriba:

e)-------8---------5---------1---------3--------------
B)------8--8------5--5------1--1------3--3------------
G)-----9----9----6----6----2----2----4----4-----------  
D)---10---------7---------3---------5-----------------
A)-10----------7---------3---------5------------------
E)----------------------------------------------------

giovo: ke pasa...?
sergio: ke no es mujer??
giovo: no
sergio: ke?
giovo: normal no?
sergio: normal???!!!...
MARIKON DE MIERDA...

KIERO MASTIKAR TU SILICONAS OTRA VEZ

COGERTE POR LA NUKA

METERTELA AL REVEZ
do                           lam
ME GUSTAN TUS COJONES Y EL TAMAÑO DE TUS PIES
fa                     solm
O LUISA PORFAVOR NO ME VAYAS A COGER
fa  solm  fa  solm
OHHHHHH OHHHHHH
(de fondo )

do               lam
luisaaaaaaaaaaaa donde estaaaaaaas
fa     solm
hooooy te ire a buskaaaaaaaar
do            lam
luisaaaaaaaaa no puedo maaaaaaas   ESTO VA JUNTO O SEA AL MISMO
LUISAAAAAAAAA LUISAAAAAAAA        / TIEMPO
fa      solm
daaaame otra oportunidaaaaaaaaaad  ESTO TB AL MISMO TIEMPO
LUISAAAAAAAAA LUISAAAAAAAA        /

do               lam
luisaaaaaaaaaaaa donde estaaaaaaas   ESTO TB
LUISAAAAAAAAA NOPUEDO VIVIR SIN TI  /
fa     solm
hooooy te ire a buskaaaaaaaar        Y ESTO TB
LUISAAAAAAAA  ME GUSTA TU PIPI      /
do            lam
luisaaaaaaaaa no puedo maaaaaaas
fa      solm
daaaame otra oportunidaaaaaaaaaad

LUISA...LUISA...LUISA... LUIS ALBERTO RUIZ........


e)-------------------------------------------
B)-------------------------------------------
G)-0-2-0-2-5---------------------------------     
D)-------------------------------------------
A)-------------------------------------------
E)-------------------------------------------

sauuu....
Calificar esta versión:
Aviso: Este fichero es trabajo propio de su transcriptor y representa su interpretación personal de la canción. El material contenido en esta página es para exclusivo uso privado, por lo que se prohibe su reproducción o retransmisión, así como su uso para fines comerciales.
Más versiones de Luisa, Chabelos
Luisa
acordes
Luisa (ver 2)
acordes
Luisa
tablatura
Luisa
bajo
Descubre más canciones de Chabelos