Luisa, Chabelos (bajo)

Autor: Jair16 | 43471 visualizaciones

1)-------------------------------
2)-------------------------------
3)-3-3-3-3-0---------------------
4)----------5-5-5-0-1-1-1-3-3-3-3

Huuu huuu uu y toa la weada esa

Luisa??.!!!!
1)-----------------
2)-----------------
3)-3---------------
4)-----------------

Donde estas!!!
1)-----------------
2)-----------------
3)-----------------
4)-5---------------

Hoy, te ire a buskar...!
1)------------------
2)------------------
3)------------------
4)-1------------3---

Luisa...!
1)-------------------
2)-------------------
3)-3-----------------
4)-------------------

No puedo mas...!
1)-------------------
2)-------------------
3)-------------------
4)-----5-------------

Dame otra oportunidad...!
1)-------------------
2)-------------------
3)-------------------
4)-1------------3----

...Para amarte...!

1)-----------------------------------
2)-----------------------------------   En toda la kancion
3)-3333333---------------------------  / se repite este cirkulo
4)--------5555555-0-1111111-0-333333? /

Al final de la parte k va medio lenteja el bajo hace esta nota
Bueno aki va:

1)--------------------------------------------
2)-------5-5-5--3-3-3--2-2-2------------------
3)--------------------------5-5-5-3-3-3-------
4)--------------------------------------------

Y esta es la vaina k hace el bajo kuando estan en pleno Uhhh y too
esa weada xD

1)-----------------------------------------------------------
2)--------5-5-5----------------------------------------------
3)--3-3-3---------------7-7-7---------3-3-3---------5-5-5----
4)--------------0-5-5-5-------0-1-1-1-------0-3-3-3----------

Comentarios del colaborador: Gracias a LaCuerda.net

Calificar esta versión:
Aviso: Este fichero es trabajo propio de su transcriptor y representa su interpretación personal de la canción. El material contenido en esta página es para exclusivo uso privado, por lo que se prohibe su reproducción o retransmisión, así como su uso para fines comerciales.
Más versiones de Luisa, Chabelos
Luisa
acordes
Luisa (ver 2)
acordes
Luisa
tablatura
Luisa
bajo
Descubre más canciones de Chabelos