El Arte Del Engaño, Cartel De Santa (tablatura) (ver 3)

Autor: emizrao | 42470 visualizaciones

PRIMERO VA ESTO:

intro

e(1) -------------
B(2) -------------
G(3) -------------
D(4) -3-2-3-0-----
A(5) -------------
E(6) ------------- x2(2veces)

e(1) ------------------------
B(2) ------------------------
G(3) -------0---------0------
D(4) -3-2-3-----3-2-3---3-2--
A(5) ------------------------
E(6) ------------------------


DESPUES VA ESTO:

e(1)--5---5---5---------------------------
B(2)----6---6---6--12--10--9--10--12--10-
G(3)--------------------------------------
D(4)--------------------------------------
A(5)--------------------------------------
E(6)--------------------------------------

e(1)----5---5---5-----------------------------
B(2)--6---6---6----6--12--10--9--10--12--10---
G(3)------------------------------------------
D(4)------------------------------------------
A(5)------------------------------------------
E(6)------------------------------------------

Y LA PARTE DEL INTRO VA TAMBIEN EN LA LETRA PERO CON DIFERENTE ORDEN AHI USTEDES ESCUCHANDO LA ORIGINAL LA SACAN BIEN
Calificar esta versión:
Aviso: Este fichero es trabajo propio de su transcriptor y representa su interpretación personal de la canción. El material contenido en esta página es para exclusivo uso privado, por lo que se prohibe su reproducción o retransmisión, así como su uso para fines comerciales.
Más versiones de El Arte Del Engaño, Cartel De Santa
El Arte Del Engaño
acordes
El Arte Del Engaño
tablatura
El Arte Del Engaño (ver 2)
tablatura
El Arte Del Engaño (ver 3)
tablatura
Descubre más canciones de Cartel De Santa