El Arte Del Engaño, Cartel De Santa (acordes)

Autor: SkandaRebel | 17556 visualizaciones

aamdmeff-aggm
 EL ARTE DEL ENGAÑO/ Cartel de Santa

Intro:

E --------------------
B --------------------
G --------------------
D --------------------
A -8-7-8-5---8-7-8-5—-
E --------------------

E ------------------------------------
B ------------------------------------
G ------------------------------------
D ------------------------------------
A --8-7-8-10---7-8-10-8-7-------------
E ------------------------------------



Esto va mientras se toca lo de arriba;

E ---5-------5-------5-----------5----
B ------6--------------------6--------
G ---------5-----7------7-------------
D ------------------------------------
A ------------------------------------
E ------------------------------------

Después sigue esto;

E ------------------------------------
B ------------------------------------
G -10-7-8-7---8-7-8--7-7-8-5-8-7------
D ------------------------------------
A ------------------------------------
E ------------------------------------

E ------------------------------------
B ------------------------------------
G -10-7-8-7---8-7-8--7-7-8-5-8-7------
D ------------------------------------
A ------------------------------------
E ------------------------------------




despues sigue;




                  Dm
A ----8—5-    El arte del engaño resulto ser tu mejor don
                Am
A -8-7-8-11-  Pero no digas que no lo conoces al perfección
                  G
A -8-7-8-10-  Conociste el amor E nombre de un tal amor
               F/A                                        E
A -8-7-8-7-   Pero la traición fue la flecha que atravesó tu corazón
                 Dm
A -8-7-8-5-   Hay dolor, hay rencores y sentimientos encontrados
                  Am
A -8-7-8-11   Hay deseo de morir por no tenerte a mi lado
                Gm
A -8-7-8-10   Pero ya no importa nada el pasado quedo atrás
                F/A                                  E
A -8-7-8-7-   Y así como llegaste ahora mismo te me vas
                Dm
A -8-7-8-10   Jamás te di la espalda y eso no puedes negarlo
               Am
A -8-7-8-10   Jamás te traicione nunca quise hacerte daño
                G
A -8-7-8-7-   Pasaran los años seguirás en mi memoria
              F/A                                     E
A -8-7-8-10-8-7
             Pues tu has sido la única en llevarme hasta la gloria


Dm                         Am
Todo se derrumbo dentro de mí, dentro de mí
 G                       F/A         E
De humo fue tu amor y de papel, y de papel
Dm              Am
Mira mis sueños como se queman
Gm                F                 E
Mira mis lágrimas como no cesan por ti.



        Dm
A ----8—5-
        Ya te habías tardado en inyectarme tu veneno
         Am
A -8-7-8-11
        Nunca pude ver tu cielo y no he chocado con el suelo
          G
A -8-7-8-10-
        Pero solo quiero en este mundo seguir estando vivo
         F/A                         E
A -8-7-8-7-
        Para verte darme cuenta del error que has cometido
          Dm
A -8-7-8-5-
        Cuanto tuve entre mis manos te lo di sin interés
           Am
A -8-7-8-11
         Pero nunca fue suficiente por más que lo intente
          Gm
A -8-7-8-10
         Demostré que era primero el sentimiento no el dinero
             F/A                         E
A -8-7-8-7-
        Y que si algo nos llevamos a de ser lo mas sincero
         Dm
A -8-7-8-10
         Se que no fui bueno  demostrando sentimientos
          Am
A -8-7-8-10
         Pero siempre he sido rudo, frío, duro como el hielo
           G
A -8-7-8-7-
         Me hundiste en el infierno y la verdad no me arrepiento
            F/A                          E
A -8-7-8-10-8-7
           Puede ser que yo te ame hasta el último momento


Dm                         Am
Todo se derrumbo dentro de mí, dentro de mí
 G                       F/A         E
De humo fue tu amor y de papel, y de papel
Dm              Am
Mira mis sueños como se queman
Gm                F                 E
Mira mis lágrimas como no cesan por ti.




E ------------------------------------
B ------------------------------------
G -10-7-8-7---8-7-8--7-7-8-5-8-7------
D ------------------------------------
A ------------------------------------
E ------------------------------------

E ------------------------------------
B ------------------------------------
G -10-7-8-7---8-7-8--7-7-8-5-8-7------
D ------------------------------------
A ------------------------------------
E ------------------------------------


E ------------------------------------
B ------------------------------------
G -10-7-8-7---8-7-8--7-7-8-5-8-7------
D ------------------------------------
A ------------------------------------
E ------------------------------------

E ------------------------------------
B ------------------------------------
G -10-7-8-7---8-7-8--7-7-8-5-8-7------
D ------------------------------------
A ------------------------------------
E ------------------------------------


------------
  F/A

E --x--
A --x--
D --3--
G --2--
B --1--
E --1--

 
Calificar esta versión:
Aviso: Este fichero es trabajo propio de su transcriptor y representa su interpretación personal de la canción. El material contenido en esta página es para exclusivo uso privado, por lo que se prohibe su reproducción o retransmisión, así como su uso para fines comerciales.
Más versiones de El Arte Del Engaño, Cartel De Santa
El Arte Del Engaño
acordes
El Arte Del Engaño
tablatura
El Arte Del Engaño (ver 2)
tablatura
El Arte Del Engaño (ver 3)
tablatura
Descubre más canciones de Cartel De Santa