El Martillo, Caramelos De Cianuro (bajo)

Autor: Anónimo | 46846 visualizaciones



ESTA ROLA FUÉ TRANSCRITA
POR FELIX GUERRA. 
DESDE:MATURIN-MONAGAS:VENEZUELA

INTRO:

-------------------------------------------------------
-------------------------------------------------------
-----------------------3--------------------(4 veces)--
--3-3---6-6---3-3---6-----3-3-3-3-3--------------------


parte 1
--------------------------------------------------------------------
--------------------------------------------------------------------
-------------------3------------------------------------3-----------
-3-3---6-6--3-3--6---3-3-3-3-3------3-3---6-6---3-3---6---3-3-3-3-3-
 Me  caí  por  que  el  triciclo  ya  no  tiene  gasolina.


------------------------------------------------------------------------
------------------------------------------------------------------------
------------------------------------------------------------------------
-------3-3--------6-6------------8-8-------10-10-----10-10--9-9--10-----
sI me prestas tu martillo yo martillo mi triciclo para ver si este camina.



              -------------------------------------
PEGALE CON    -------------------------------------
EL MARTILLO.  -------------------------------------
              -3-3-3-3-3-3-3-3-3-3-3-3---3-3-3-3-3-



PARTE 2
-------------------------------------------------------------------
-------------------------------------------------------------------
-------------------3-----------------------------------3-----------
--3-3--6-6--3-3--6---3-3-3-3-3--------3-3--6-6--3-3--6---3-3-3-3-3-
  UN  VIEJITO  DESDE  LEJOS  ME  MOSTRABA  LAS  ENCIAS. 


------------------------------------------------------------------------
------------------------------------------------------------------------
------------------------------------------------------------------------
----3-3----------6-6---------8-8--------10-10--------10-10---9-9--10-10-
RECORDABA QUE DE NIÑO MARTILLABA SU TRICICLO Y DE LO CORTA QUE ES LA VIDA.



             ---------------------------
PEGALE CON   ---------------------------
EL MARTILLO. ---------------------------
             -3-3-3-3-------------------




PARTE 3
---------------------------------------------
---------------------------------------------
-------------------3------------(8 VECES)----
--3-3--6-6--3-3--6---3-3-3-3-3---------------



------------------------------------------------
------------------------------------------------
-------------------------------------(2 VECES)--
-3-3--3-3--6-6-6-6-6--3-3--3-3--6-6-------------



---------------------------------------------------------
---------------------------------------------------------
--------------------------------------------(4 VECES)----
--5-5--6-6--5-5--6-6----5-5--6-6--5-5--6-5---------------
 Ah h h h h h h  h h  Ahh hh hh hhh



PARTE 4
----------------------------------------------------
----------------------------------------------------
------------------3------------(4 VECES)------------
-3-3--6-6--3-3--6---3-3-3-3-3-----------------------




PARTE 5
---------------------------------------------------------------
---------------------------------------------------------------
------------------3--------------------------------3-----------
-3-3--6-6--3-3--6---3-3-3-3-3-----3-3--6-6--3-3--6---3-3-3-3-3-
 Y  LO  QUE  RÁPIDO  COMIENZA  SIEMPRE  RÀPIDO  TERMINA.



---------------------------------------------------------------------------
---------------------------------------------------------------------------
---------------------------------------------------------------------------
---------3-3------------6-6--------8-8-----------10-10-----10-10--9-9-10---
LOS QUE DICEN QUE POR SIEMPRE SOLAMENTE POR QUE MIENTEN APROVECHA BIEN LA VIDA.




             ---------------------------------------
PÉGALE CON   ---------------------------------------
EL MARTILLO  ---------------------------------------
             --3-3-3-3-3-3-3-3-3-3-3-3---3-3-3-3-3--





PARTE 6
----------------------------------------------------------------
----------------------------------------------------------------
-------------------3--------------------------------3-----------
--3-3--6-6--3-3--6---3-3-3-3-3-----3-3--6-6--3-3--6---3-3-3-3-3-
Y  SI  UN  VIEJITO  DESDE  LEJOS  TE  MOSTRABA  LAS  ENCIAS.



---------------------------------------------------------------------
---------------------------------------------------------------------
---------------------------------------------------------------------
-----3-3----------6-6--------8-8--------10-10-------10-10--9-9-10----
RECORDABA QUE DE NIÑO MARTILLABA SU TRICICLO Y DE LO CORTA QUE ES LA VIDA.




            ------------------ 
PÈGALE CON  ------------------
EL MARTILLO ------------------
            ------(3)---------







NOTA:En la parte tres: dice (8 veces).
cuando vayas por la cuarta al final se le da mas 
veces al -3-igualmente con la octava.


esta es toda la canción 
si tienes alguna duda no olvides 
escribirme arriba está mi e-mail





Calificar esta versión:
Aviso: Este fichero es trabajo propio de su transcriptor y representa su interpretación personal de la canción. El material contenido en esta página es para exclusivo uso privado, por lo que se prohibe su reproducción o retransmisión, así como su uso para fines comerciales.
Más versiones de El Martillo, Caramelos De Cianuro
El Martillo
acordes
El Martillo
tablatura
El Martillo
bajo
Descubre más canciones de Caramelos De Cianuro