El Martillo, Caramelos De Cianuro (acordes)

Autor: Anónimo | 26764 visualizaciones



la intro es muy cencilla:

---------------------------
---------------------------
---------------------------
---------------------------
---------------------------
-0-0-3-3-0-0-5-5-0-0-0-0-0-

esto lo haces 2 veces, dspués:

---------------------------
---------------------------
-------------2-2-----------
-2-2-2-2-2-2-2-2-2-2-2-2-2-
-2-2-2-2-2-2-0-0-2-2-2-2-2-
-0-0-3-3-0-0-----0-0-0-0-0-

se que hay mucho mas, pero esto es todo lo que tengo hasta ahora.





Calificar esta versión:
Aviso: Este fichero es trabajo propio de su transcriptor y representa su interpretación personal de la canción. El material contenido en esta página es para exclusivo uso privado, por lo que se prohibe su reproducción o retransmisión, así como su uso para fines comerciales.
Más versiones de El Martillo, Caramelos De Cianuro
El Martillo
acordes
El Martillo
tablatura
El Martillo
bajo
Descubre más canciones de Caramelos De Cianuro