El Último Polvo, Caramelos De Cianuro (tablatura) (ver 2)

Autor: Anónimo | 39575 visualizaciones



Esta canción esta demasiado buena............

Intro:con un pedal de flanger
e|-5-----5----6----5----6p5------------------
B|---6-----6----6----6------6----------------
G|-----5-----5----5----5------5--------------
D|-------------------------------------------
A|------------------------------------------- 
E|------------------------------------------- 

e|-5----8----6----5--------------------------
B|---6----6----6----6------------------------
G|-----5----5----5----5----------------------
D|-------------------------------------------
A|------------------------------------------- 
E|------------------------------------------- 

Verso:(powerchords)
e|-------------------------------------------  :dejar sonar
B|-------------------------------------------
G|-----5:--3:--------------------------------
D|-3:--5:--3:--------------------------------
A|-3:--3:--1:-------------------------------- 
E|-1:---------------------------------------- 

Coro: (distorsión)
e|-------------------------------------------
B|-------------------------------------------
G|-----------------------7-7-7-7-7--5-5-5-5-5
D|-3-3-3-3-3--7-7-7-7-7--7-7-7-7-7--5-5-5-5-5
A|-3-3-3-3-3--7-7-7-7-7--5-5-5-5-5--3-3-3-3-3
E|-1-1-1-1-1--5-5-5-5-5---------------------- 

Intermedio:
e|------3:-----------------------------------
B|----3:-------------------------------------
G|-3:----------5:--5:------------------------
D|-3:-----7:--7:---5:------------------------
A|-1:-----5:-------3:------------------------ 
E|------------------------------------------- 

e|-------------------------------------------
B|-------------------------------------------
G|-------------------------------------------
D|-3-3-3--2-2-2--7-7-7-----------------------
A|-3-3-3--2-2-2--7-7-7----------------------- 
E|-1-1-1--0-0-0--5-5-5----------------------- 

Final:
e|-5-----5----6----5----6p5------------------
B|---6-----6----6----6------6----------------
G|-----5-----5----5----5------5--------------
D|-------------------------------------------
A|------------------------------------------- 
E|------------------------------------------- 

e|-5----8----6----5--------------------------
B|---6----6----6----6------------------------
G|-----5----5----5----5----------------------
D|-------------------------------------------
A|------------------------------------------- 
E|-------------------------------------------





Calificar esta versión:
Aviso: Este fichero es trabajo propio de su transcriptor y representa su interpretación personal de la canción. El material contenido en esta página es para exclusivo uso privado, por lo que se prohibe su reproducción o retransmisión, así como su uso para fines comerciales.
Más versiones de El Último Polvo, Caramelos De Cianuro
El Ultimo Polvo
acordes
El Último Polvo
tablatura
El Último Polvo (ver 2)
tablatura
El Último Polvo
bajo
Descubre más canciones de Caramelos De Cianuro