El Último Polvo, Caramelos De Cianuro (bajo)

Autor: Anónimo | 17837 visualizaciones



Esta es la segunda que saco de los caramelos, es muy sencilla.


Verso (empieza con la voz de asier)
G------------------------------------------------------------------|
D------------------------------------------------------------------|
A-3-3-3-3-3-3-3-3--5-5-5-5-5-5-5-5--0-0-0-0-0-0-0-0-0-0-0-0-0-0-0-0| x3
E------------------------------------------------------------------|

Pre-coro
G------------------------------------------------------------------|
D------------------------------------------------------------------|
A-3-3-3-3-3-3-3-3-----------------5-5-5-5-5-5-5-5--3-3-3-3-3-3-3-3-|
E-----------------3-3-3-3-3-3-3-3----------------------------------|

G----------------------------------|
D----------------------------------|
A-3-3-3-3-3-3-3-3------------------|
E-----------------3-3-3-3-3-3-3-3/6|

Coro (estoy poniendo como si fueran 8 veces 
      cada nota pero en realidad son 14 o 15)
G--------------------------------------------------------------------|
D--------------------------------------------------------------------|
A----------------------------------5-5-5-5-5-5-5-5-5--3-3-3-3-3-3-3-3|x2
E-1-1-1-1-1-1-1-1--5-5-5-5-5-5-5-5-----------------------------------|

Interludio
G------------------------------------------------------------------|
D------------------------------------------------------------------|
A-3-3-3-3-3-3-3-3--5-5-5-5-5-5-5-5--0-0-0-0-0-0-0-0-0-0-0-0-0-0-0-0| x3
E------------------------------------------------------------------|

Pre-coro
G------------------------------------------------------------------|
D------------------------------------------------------------------|
A-3-3-3-3-3-3-3-3-----------------5-5-5-5-5-5-5-5--3-3-3-3-3-3-3-3-|
E-----------------3-3-3-3-3-3-3-3----------------------------------|

G----------------------------------|
D----------------------------------|
A-3-3-3-3-3-3-3-3------------------|
E-----------------3-3-3-3-3-3-3-3/6|

Coro (estoy poniendo como si fueran 8 veces 
      cada nota pero en realidad son 14 o 15)
G--------------------------------------------------------------------|
D--------------------------------------------------------------------|
A----------------------------------5-5-5-5-5-5-5-5-5--3-3-3-3-3-3-3-3|x2
E-1-1-1-1-1-1-1-1--5-5-5-5-5-5-5-5-----------------------------------|

Puente
G--------------------------------------------------------------------|
D--------------------------------------------------------------------|
A-1-1-1-1-1-1-1-1--5-5-5-5-5-5-5-5--3-3-3-3-3-3-3-3-3-3-3-3-3-3-3-3-3|x4
E--------------------------------------------------------------------|

Fin
G----------------------------------------------------------------|
D----------------------------------------------------------------|
A-8-8-8-8-8-8-8-8--5-5-5-5-5-5-5-5--7-7-7-7-7-7-7-7-7-7-7-7-7-7-7|x4
E----------------------------------------------------------------|

Bueno, eso es todo. Espero que les guste....





Calificar esta versión:
Aviso: Este fichero es trabajo propio de su transcriptor y representa su interpretación personal de la canción. El material contenido en esta página es para exclusivo uso privado, por lo que se prohibe su reproducción o retransmisión, así como su uso para fines comerciales.
Más versiones de El Último Polvo, Caramelos De Cianuro
El Ultimo Polvo
acordes
El Último Polvo
tablatura
El Último Polvo (ver 2)
tablatura
El Último Polvo
bajo
Descubre más canciones de Caramelos De Cianuro