Cloroformo, Caramelos De Cianuro (tablatura)

Autor: Anónimo | 46660 visualizaciones



la primera versión de cloroformo que hice fue muy mala, así que aquí
tienen la versión mejorada:

intro ( lo tocas dos veces):

-------------------------------------------------------
-------------------------------------------------------
-8-8-8-8-4-4-4-4---------6-6-6-6-------------4-4-4-4---
-8-8-8-8-4-4-4-4-4-4-4-4-6-6-6-6-6-6-6-6--4--4-4-4-4---
-6-6-6-6-2-2-2-2-4-4-4-4-4-4-4-4-6-6-6-6--4--2-2-2-2---
-----------------2-2-2-2---------4-4-4-4--2------------


versos:
---------------------------------------------------------
---------------------------------------------------------
-----------------6-6-6-6-6-6-6-6-8-8-8-8---------4-4-4-4-
-4-4-4-4-4-4-4-4-6-6-6-6-6-6-6-6-8-8-8-8-8-8-8-8-4-4-4-4-
-4-4-4-4-4-4-4-4-4-4-4-4-4-4-4-4-6-6-6-6-8-8-8-8-2-2-2-2-
-2-2-2-2-2-2-2-2-------------------------6-6-6-6---------


primera estrofa del coro:

-----------------------------------------------
-----------------------------------------------
-----------4-4-4-4---------------------4-4-4-4-
-6-6-6-6-8-4-4-4-4-6-6-6-6-8-8-8-8-4-4-4-4-4-4-
-6-6-6-6-8-2-2-2-2-6-6-6-6-8-8-8-8-4-4-2-2-2-2-
-4-4-4-4-6---------4-4-4-4-6-6-6-6-2-2---------

el resto del coro es igual a la intro





Calificar esta versión:
Aviso: Este fichero es trabajo propio de su transcriptor y representa su interpretación personal de la canción. El material contenido en esta página es para exclusivo uso privado, por lo que se prohibe su reproducción o retransmisión, así como su uso para fines comerciales.
Más versiones de Cloroformo, Caramelos De Cianuro
Cloroformo
acordes
Cloroformo
tablatura
Cloroformo
bajo
Descubre más canciones de Caramelos De Cianuro