Cloroformo, Caramelos De Cianuro (acordes)

Autor: Anónimo | 33500 visualizaciones

asos5asosmbb5csoscsos5dsos5dsosmfsosfsos5f5gsos5


Esta es mi version de una de las canciones mas finas de
los caramelos de cianuro, no se si habian puesto el solo, 
bueno, aqui lo encontraran a la perfeccion, esta 100% correcta!
Enjoy it!

INTRO:D#5-B5-F#5-C#5-G#5-A#5-B5
      D#5-B5-F#5-C#5-G#5-F#5-B5


I-Empieza el bajo hasta 'hasme saber...' que es cuando empieza la
  guitarra con arpegios y sin distorción.

F#        C#       D#m A#m     B
Al despertar por favor no te asustes
F#        C#            D#m A#m B
Puedes gritar que no hay nadie cerca
F#      C#          D#m A#m     B
Hasme saber si te aprietan las cuerdas
F#        C#       D#m A#m     B
No quiero herir tus hermosas muñecas

PRECORO: Con distorción
G#5      A#5-B5         G#5      A#5  B5  F#5 
Por tantas veces que me despreciastes pagaras

CORO
D#5 B5 F#5   C#5  G#5        A#5-B5
Y lentamente te despojo de tus prendas intimas
D#5 B5 F#5   C#5    G#5        A#5-B5
Voy avanzando sobre tus tesoros, tus terrenos
D#5  B5  F#5   C#5     G#5        A#5-B5
mi lengua va posandose en tus labios llenos de humedad
D#5 B5     F#5       C#5  G#5        A#5-B5
tu cuerpo es como un fruto que devoro, que penetro

Solo: Bajo hace los acordes de las estrofas

E|-------------------9--------------------------------X-X-|
B|-/11---11-11-11-11---12-11-9-----9-9----------------X-X-|
G|-----------------------------11------11-8-----------X-X-|
D|-------------------------------------------11-9-8---9-9-|
A|----------------------------------------------------9-9-|
E|----------------------------------------------------7-7-|

E|-------------------------------------------------------||
B|---------------------------4h6-6-6-4h6--4-4h6-6-6-7-4--||
G|-------------6-6h8-8-8-6h8-----------------------------||
D|-4h6-6-6-4h6-------------------------------------------||
A|-------------------------------------------------------||
E|-------------------------------------------------------||

E|----------------------------------/11-[14h12p11]x4-----|
B|-7-9p7-6-7---7-9p7-6-7---7-9p7-6-----------------------|
G|-------------------------------------------------------|
D|-------------------------------------------------------|
A|-------------------------------------------------------|
E|-------------------------------------------------------|

E|-------------------------------------------||
B|-------------------------------------------||
G|-------------------------------------------||
D|-6h8-6----6h9-8----6h8-6----------------6--||
A|-------9--------9--------9---6-9--6-6-9----||
E|---------------------------9---------------||

E|----------------------------------------------------------|
B|----------------------------------------------------------|
G|--6-------------8-------------6---------------------------|
D|----6h8-6---6-----6h8-6---6-----6h8-6h8p6---6-----------6-|
A|----------9-------------9-----------------9---9---6-6h9---|
E|----------------------------------------------------------|

PRECORO

CORO X2

Final esto va en el ultimo coro en la parte 'mi lengua va...' y parte
del 3er coro en el que el sonido se va apagando, ojo, el bajo sigue igual
como antes, este cambio es solo para guitarra:

D#5  F5  F#5   G#5 
mi lengua va posandose en tus labios llenos de humedad...





Calificar esta versión:
Aviso: Este fichero es trabajo propio de su transcriptor y representa su interpretación personal de la canción. El material contenido en esta página es para exclusivo uso privado, por lo que se prohibe su reproducción o retransmisión, así como su uso para fines comerciales.
Más versiones de Cloroformo, Caramelos De Cianuro
Cloroformo
acordes
Cloroformo
tablatura
Cloroformo
bajo
Descubre más canciones de Caramelos De Cianuro