Sacate La Mierda, Carajo (tablatura)

Autor: zzzz | 17234 visualizaciones



RIFF 1
Db :19-19-19--------------|------------------------|
Ab :---------19-----19-19-|20-20-20-20-------------|
E  :----------------------|------------19-19-19-19-|
B  :----------------------|------------------------|
Gb :----------------------|------------------------|
B  :----------------------|------------------------|

RIFF 2
Db :19-19-19--------------|------------------------|
Ab :---------19-----19-19-|20-20-20-20-22-22-22-22-|
E  :----------------------|------------------------|
B  :----------------------|------------------------|
Gb :----------------------|------------------------|
B  :----------------------|------------------------|

RIFF 3
Db :19-19-19--------------|------------------------|
Ab :---------19-----19-19-|20-20-20-20-------------|
E  :----------------------|------------19-19-19-19-|
B  :----------------------|------------------------|
Gb :----------------------|------------17-17-17-17-|
B  :----------------------|------------------------|

RIFF 4
Db :----------------|----------------|
Ab :*---------------|----------------|
E  :*---------------|----------------|
B  :8-----1-3-1-1---|3---3---4-4-----|
Gb :8-----1-3-1-1---|3---3---4-4-----|
B  :8-----1-3-1-1---|3---3---4-4-----|

RIFF 5A
Db :----------------|----------------|
Ab :----------------|----------------|
E  :----------------|----------------|
B  :8-----8-----3---|----3---3---3-3-|
Gb :8-----8-----3---|----3---3---3-3-|
B  :8-----8-----3---|----3---3---3-3-|

Db :----------------|----------------|
Ab :----------------|----------------|
E  :----------------|----------------|
B  :4-----4-----1---|----1---1---1-1-|
Gb :4-----4-----1---|----1---1---1-1-|
B  :4-----4-----1---|----1---1---1-1-|


Db :----------------|----------------|
Ab :----------------|----------------|
E  :----------------|----------------|
B  :8-----4-----3---|----1-----------|
Gb :8-----4-----3---|----1-----------|
B  :8-----4-----3---|----1-----------|

RIFF 5B
Db :----------------|----------------|
Ab :----------------|----------------|
E  :----------------|----------------|
B  :8-----8-----3---|----3---3---3-3-|
Gb :8-----8-----3---|----3---3---3-3-|
B  :8-----8-----3---|----3---3---3-3-|

Db :----------------|----------------|
Ab :----------------|----------------|
E  :----------------|----------------|
B  :4-----4-----1---|----1---1---1-1-|
Gb :4-----4-----1---|----1---1---1-1-|
B  :4-----4-----1---|----1---1---1-1-|

Db :----------------|----------------|
Ab :----------------|----------------|
E  :----------------|----------------|
B  :8-----4-----3---|----1-----1---1-|
Gb :8-----4-----3---|----1-----1---1-|
B  :8-----4-----3---|----1-----1---1-|

Db :----------------|----------------|
Ab :----------------|----------------|
E  :----------------|----------------|
B  :4-----4---------|1-----1---1-1-1-|
Gb :4-----4---------|1-----1---1-1-1-|
B  :4-----4---------|1-----1---1-1-1-|

Db :----------------|----------------|
Ab :----------------|----------------|
E  :----------------|----------------|
B  :8-----8-----3---|----3---3---3-3-|
Gb :8-----8-----3---|----3---3---3-3-|
B  :8-----8-----3---|----3---3---3-3-|

Db :----------------|----------------|
Ab :----------------|----------------|
E  :----------------|----------------|
B  :4-----4-----1---|----1---1---1-1-|
Gb :4-----4-----1---|----1---1---1-1-|
B  :4-----4-----1---|----1---1---1-1-|

Db :----------------|----------------|
Ab :----------------|----------------|
E  :----------------|----------------|
B  :8-----4-----3---|----1-----1---1-|
Gb :8-----4-----3---|----1-----1---1-|
B  :8-----4-----3---|----1-----1---1-|

Db :----------------|----------------|
Ab :----------------|----------------|
E  :----------------|----------------|
B  :4-----4-----4---|4-----4-4---4-4-|
Gb :4-----4-----4---|4-----4-4---4-4-|
B  :4-----4-----4---|4-----4-4---4-4-|

RIFF 5C
Db :----------------|----------------|
Ab :----------------|----------------|
E  :----------------|----------------|
B  :8-----8-----3---|----3---3---3-3-|
Gb :8-----8-----3---|----3---3---3-3-|
B  :8-----8-----3---|----3---3---3-3-|

Db :----------------|----------------|
Ab :----------------|----------------|
E  :----------------|----------------|
B  :4-----4-----1---|----1---1---1-1-|
Gb :4-----4-----1---|----1---1---1-1-|
B  :4-----4-----1---|----1---1---1-1-|

Db :----------------|----------------|
Ab :----------------|----------------|
E  :----------------|----------------|
B  :8-----4-----3---|----1-----1---1-|
Gb :8-----4-----3---|----1-----1---1-|
B  :8-----4-----3---|----1-----1---1-|

Db :----------------|----------------|
Ab :----------------|----------------|
E  :----------------|----------------|
B  :4-----4---------|1-----1---1-1-1-|
Gb :4-----4---------|1-----1---1-1-1-|
B  :4-----4---------|1-----1---1-1-1-|

RIFF 6
Db :----------------|----------------|
Ab :------------8---|--------*---8---|
E  :7-------7---*---|--------7---*---|
B  :----------------|----------------|
Gb :*---------------|----------------|
B  :----------------|----------------|

Db :-----------------|----------------|
Ab :----10-----------|----8---7---8---|
E  :-----------------|----------------|
B  :-----------------|----------------|
Gb :-----------------|----------------|
B  :-----------------|----------------|

Db :----------------|----------------|----------------|
Ab :7---*-------8---|----*-----------|----------------|
E  :*---7-------*---|----7---9-------|7---------------|
B  :----------------|----------------|----------------|
Gb :----------------|----------------|----------------|
B  :----------------|----------------|----------------|

RIFF 7
Db :----------------|----------------|
Ab :----------------|----------------|
E  :----------------|----------------|
B  :8---8---*---8---|8---6-8---*-----|
Gb :8---8---*---8---|8---6-8---*-----|
B  :8---8---*---8---|8---6-8---*-----|

RIFF 8A
Db :----------------|----------------|
Ab :----------------|----------------|
E  :----------------|--4-----*-------|
B  :------0-----*---|--------0---*---|
Gb :2-----*-----2---|--*---------2---|
B  :----------------|----------------|

Db :----------------|----------------|
Ab :----------------|--2-------------|
E  :----------------|--------*-------|
B  :------2-----*---|--------2---*---|
Gb :4-----*-----4---|--*---------4---|
B  :----------------|----------------|

Db :----------------|----------------|
Ab :----------------|----------------|
E  :----------------|--7-----*-------|
B  :------4-----*---|--------4---*---|
Gb :5-----*-----5---|--*---------5---|
B  :----------------|----------------|

Db :----------------|----------------|
Ab :----------------|----------------|
E  :----------------|--4-----*-------|
B  :------0-----*---|--------0---*---|
Gb :2-----*-----2---|--*---------2---|
B  :----------------|----------------|

Db :----------------|----------------|
Ab :----------------|----------------|
E  :----------------|9---*-----------|
B  :------6-----*---|----6---*---6---|
Gb :7-----*-----7---|*-------7---*---|
B  :----------------|----------------|

RIFF 8B
Db :----------------|
Ab :----------------|
E  :----------------|
B  :----------------|
Gb :7---------------|
B  :----------------|


RIFF 9
Db :----------------|----------------|
Ab :----------------|----------------|
E  :----------------|----------------|
B  :8-----8-----3---|----------------|
Gb :8-----8-----3---|----------------|
B  :8-----8-----3---|----------------|

Db :----------------|----------------|
Ab :----------------|----------------|
E  :----------------|----------------|
B  :4-----4-----1---|----------------|
Gb :4-----4-----1---|----------------|
B  :4-----4-----1---|----------------|

RIFF 10
Db :----------------|----------------|
Ab :----------------|----------------|
E  :----------------|----------------|
B  :1---1---*---1---|1---0-1---*-----|
Gb :1---1---*---1---|1---0-1---*-----|
B  :1---1---*---1---|1---0-1---*-----|

RIFF 11
Db :----------------|
Ab :----------------|
E  :----------------|
B  :1---1---*-------|
Gb :1---1---*-------|
B  :1---1---*-------|

RIFF 12
Db :------------------------|------------------------|
Ab :11-11-11-11-11-11-11-11-|11-11-11-11-11-11-11-11-|
E  :------------------------|------------------------|
B  :-*----------------------|------------------------|
Gb :-*----------------------|------------------------|
B  :-*----------------------|------------------------|

Db :------------------------|------------------------|
Ab :-*----------------16-16-|16-16-16-16-16-16-16-16-|
E  :11-11-11-11-11-11--*----|------------------------|
B  :------------------------|------------------------|
Gb :------------------------|------------------------|
B  :------------------------|------------------------|

RIFF 13
Db :18-18-18-18-18-18-18-18-|18-18-18-18-18-18-18-18-|
Ab :-*----------------------|------------------------|
E  :------------------------|------------------------|
B  :------------------------|------------------------|
Gb :------------------------|------------------------|
B  :------------------------|------------------------|

Db :-*--------------------|----------------|
Ab :----------------------|----------------|
E  :11-11-11-11-11-11-8-8-|8-8-8-8-8-8-8-8-|
B  :----------------------|----------------|
Gb :----------------------|----------------|
B  :----------------------|----------------|






Calificar esta versión:
Aviso: Este fichero es trabajo propio de su transcriptor y representa su interpretación personal de la canción. El material contenido en esta página es para exclusivo uso privado, por lo que se prohibe su reproducción o retransmisión, así como su uso para fines comerciales.
Más versiones de Sacate La Mierda, Carajo
Sacate La Mierda
acordes
Sacate La Mierda
tablatura
Descubre más canciones de Carajo