Luna Herida, Carajo (tablatura)

Autor: ryusaki96 | 32567 visualizaciones



Tercer Track del disco "El Mar de las Almas"

Intro Bajo:

G)|-----------------------------------------------|
B)|-----------------------------------------------|
A)|------333-5-6--3-5-6-----------5-6-------------|
E)|-11s1----------------4-3-1-3-4-----------------|

Intro Guitarra:

e)|-------------------1--4--3----1--4--3--|
B)|--4----3-----1-------------------------|
G)|---------------------------------------|
D)|---------------------------------------|
A)|---------------------------------------|
E)|---------------------------------------|

1er Verso: (Acordes arpegiados y el Bajo sigue)

Cm                              Gm
 Sin decir nada el dolor me habla
Fm                           Cm
 Sin decir nada espero en vos
Cm                            Gm
 Sin decir nada el sueño acabó
Fm                             Cm
 Cuando te fuiste habló el amor en verdad
Cm
 Lo que das nunca morirá jamás
Gm
 Es la ley donde menos uno es más
Fm
 Esta vez miraré tu rostro
Cm
 Y así sabré donde está mi hogar

Riff 1:(Con distorsion)

e)|---------------------------------------|
B)|---------------------------------------|
G)|---------------------------------------|
D)|-----------------6-5-3-----------------|
A)|--3-3-5-6--3-5-6-------5-6-------------|
E)|---------------------------------------|

e)|---------------------------------------|
B)|---------------------8-----------------|
G)|---------------------------------------|
D)|-----------------6-5-------------------|
A)|--3-3-5-6--3-5-6-----------------------|
E)|---------------------------------------|

CORO: (Palm Muting bien suave y para el bajo)
Cm                    G
En el fin, a un paso de la eternidad
Fm                      Cm G
Solo el amor me sostendrá

2do Verso: (Entra de nuevo el bajo)

Cm

Cm
Yo no sé que secreto escondes
Gm
Lo veré al entrar en tu ser
Fm
Dimelo quiero descubrirlo
Cm
Llevame donde solo vos sabes
Cm
Desde aquí ya no puedo llegar
Gm
Dejaré abierta la puerta
Fm
Te vere lagrimas de nuevo
Cm
Y Brindare mi vida por vos

Riff 1:
e)|---------------------------------------|
B)|---------------------------------------|
G)|---------------------------------------|
D)|-----------------6-5-3-----------------|
A)|--3-3-5-6--3-5-6-------5-6-------------|
E)|---------------------------------------|

e)|---------------------------------------|
B)|---------------------8-----------------|
G)|---------------------------------------|
D)|-----------------6-5-------------------|
A)|--3-3-5-6--3-5-6-----------------------|
E)|---------------------------------------|

CORO: (Bajo simple)

Cm                    G
En el fin, a un paso de la eternidad
Fm                      Cm G
Solo el amor me sostendrá
Cm                    G
En el fin, a un paso de la eternidad
Fm                     Cm G
Solo el amor te jugara

Riff 1:

e)|---------------------------------------|
B)|---------------------------------------|
G)|---------------------------------------|
D)|-----------------6-5-3-----------------|
A)|--3-3-5-6--3-5-6-------5-6-------------|
E)|---------------------------------------|
El dolor lejos se marcho
El amor todo lo curo
e)|---------------------------------------|
B)|---------------------8-----------------|
G)|---------------------------------------|
D)|-----------------6-5-------------------|
A)|--3-3-5-6--3-5-6-----------------------|
E)|---------------------------------------|

Riff 2:

e)|-----------------------------|
B)|-----------------------------|
G)|-----------------------------|
D)|-----------------------------|X3
A)|--666-666-888-666-666-555----|
E)|-----------------------------|
Cuando sea el tiempo
me ire con vos

CORO: (Bajo Simple)

Cm                    G
En el fin, a un paso de la eternidad
Fm                      Cm G
Solo el amor me sostendrá
Cm                    G
En el fin, a un paso de la eternidad
Fm                     Cm G
Solo el amor te juzgara

Riff 1:
e)|---------------------------------------|
B)|---------------------------------------|
G)|---------------------------------------|
D)|-----------------6-5-3-----------------|
A)|--3-3-5-6--3-5-6-------5-6-------------|
E)|---------------------------------------|

e)|---------------------------------------|
B)|---------------------8-----------------|
G)|---------------------------------------|
D)|-----------------6-5-------------------|
A)|--3-3-5-6--3-5-6-----------------------|
E)|---------------------------------------|

El dolor lento se marcho
                     Cm
El amor todo lo curo





Comentarios del colaborador: Fuente: Lacuerda.net

Calificar esta versión:
Aviso: Este fichero es trabajo propio de su transcriptor y representa su interpretación personal de la canción. El material contenido en esta página es para exclusivo uso privado, por lo que se prohibe su reproducción o retransmisión, así como su uso para fines comerciales.
Más versiones de Luna Herida, Carajo
Luna Herida
tablatura
Luna Herida (ver 2)
tablatura
Descubre más canciones de Carajo